Cifras e Tablaturas
Entwine

Entwine

Plastic World

Cifras Cancelar Versão de Impressão
cifras

Entwine - Plastic World

fixar na tela  
Exibindo: vídeo-aula ver clipes redimensionar
  
Intro 

D#|-------------------------------|------------------------------| 
A#|-------------------------------|------------------------------| 
F#|-------------------------------|------------------------------| 
C#|-------------------------------|------------------------------| 
G#|-------------------------------|-------------------9tr10------| 
C#|-12-0--0--13-------------------|-12-0--0--13-0--0-------------| 
  
D#|------------------------------------| 
A#|------------------------------------| 
F#|------------------------------------| 
C#|------------------------------------| 
G#|--------------------------------10\-| 
C#|-12-0--0--13-----12-0--0--13-0------| 
  
  
D#|---------------------------------------------|----------------------------------------------| 
A#|---------------------------------------------|----------------------------------------------| 
F#|---------------------------------------------|----------------------------------------------| 
C#|------------------4TR5-----------------------|-------------------7TR8-----------4--5--4TR5--| 
G#|-5--------6----------------5--6-----3--5--6--|-5--------6-----------------5--6--------------| 
C#|----0--0-----0--0-------0--------0-----------|----0--0-----0--0--------0--------------------| 
  
D#|---------------------------------------------|------------------------------------------------| 
A#|---------------------------------------------|------------------------------------------------| 
F#|---------------------------------------------|------------------------------------------------| 
C#|-------------------4TR5----------------------|------------------------------------------------| 
G#|-5--------6----------------5--6-----3--5--6--|-5--------6--------5-----3--------1--------0--1-| 
C#|----0--0-----0--0-------0--------0-----------|----0--0-----0--0-----0-----0--0-----0--0-------| 
  
  
  
Verse Part 1 
  
D#|---------------------------------------------|---------------------------------------------| 
A#|----8-----8---------------8-----8------------|----7-----7---------------7-----7------------| 
F#|-8-----8-----8----8----8-----8-----8----8----|-7-----7-----7----7----7-----7-----7----7----| play 3x 
C#|---------------------------------------------|---------------------------------------------| 
G#|---------------------------------------------|---------------------------------------------| 
C#|---------------------------------------------|---------------------------------------------| 
  
D#|---------------------------------------------|----------------------------------------------| 
A#|----8-----8---------------8-----8------------|----------------------------------------------| 
F#|-8-----8-----8----8----8-----8-----8----8----|----------------------------------------------| 
C#|---------------------------------------------|----------------------7--7--7--7--7--7--7--7--| 
G#|---------------------------------------------|--5-------------------4--4--4--4--4--4--4--4--| 
C#|---------------------------------------------|--0-------------------------------------------| 


  
Chorus 
  
D#|-------------------------------------------------|-------------------------------------------------| 
A#|-------------------------------------------------|-------------------------------------------------| 
F#|-4--4--4--4--4--4--4--4--------------------------|----------------------------------2--2--2--2--2--| 
C#|-4--4--4--4--4--4--4--4--4--4--4--4--4--4--4--4--|-5--5--5--5--5--5--5--5--0--0--0--2--2--2--2--2--| 
G#|-2--2--2--2--2--2--2--2--4--4--4--4--4--4--4--4--|-5--5--5--5--5--5--5--5--0--0--0--0--0--0--0--0--| 
C#|-------------------------4--4--4--4--4--4--4--4--|-5--5--5--5--5--5--5--5--0--0--0-----------------| 
    >        >        >     >        >        >       

play Chorus 4x 



PreVerse 
D#|------------------------------------------------|------------------------------------------------| 
A#|------------------------------------------------|------------------------------------------------| 
F#|------------------------------------------------|------------------------------------------------| 
C#|------------------------------------------------|---------------------4TR5-----------------------| 
G#|-5--------6--------5-----3--------1--------0--1-|----5--------6----------------5--6-----3--5--6--| 
C#|----0--0-----0--0-----0-----0--0-----0--0-------|-0-----0--0-----0--0-------0--------0-----------| 

D#|------------------------------------------------|------------------------------------------------| 
A#|------------------------------------------------|------------------------------------------------| 
F#|------------------------------------------------|------------------------------------------------| 
C#|------------------------------------------------|---------------------7TR8-----------4--5--4TR5--| 
G#|-5--------6--------5-----3--------1--------0--1-|----5--------6----------------5--6--------------| 
C#|----0--0-----0--0-----0-----0--0-----0--0-------|-0-----0--0-----0--0-------0--------------------| 



verse 2 

D#|---------------------------------------------|---------------------------------------------| 
A#|----8-----8---------------8-----8------------|----7-----7---------------7-----7------------| 
F#|-8-----8-----8----8----8-----8-----8----8----|-7-----7-----7----7----7-----7-----7----7----| play 3x 
C#|---------------------------------------------|---------------------------------------------| 
G#|---------------------------------------------|---------------------------------------------| 
C#|---------------------------------------------|---------------------------------------------| 
  
D#|---------------------------------------------|----------------------------------------------| 
A#|----8-----8---------------8-----8------------|----------------------------------------------| 
F#|-8-----8-----8----8----8-----8-----8----8----|----------------------------------------------| 
C#|---------------------------------------------|----------------------7--7--7--7--7--7--7--7--| 
G#|---------------------------------------------|--5-------------------4--4--4--4--4--4--4--4--| 
C#|---------------------------------------------|--0-------------------------------------------| 



Chorus 2 
  
D#|-------------------------------------------------|-------------------------------------------------| 
A#|-------------------------------------------------|-------------------------------------------------| 
F#|-4--4--4--4--4--4--4--4--------------------------|----------------------------------2--2--2--2--2--| 
C#|-4--4--4--4--4--4--4--4--4--4--4--4--4--4--4--4--|-5--5--5--5--5--5--5--5--0--0--0--2--2--2--2--2--| 
G#|-2--2--2--2--2--2--2--2--4--4--4--4--4--4--4--4--|-5--5--5--5--5--5--5--5--0--0--0--0--0--0--0--0--| 
C#|-------------------------4--4--4--4--4--4--4--4--|-5--5--5--5--5--5--5--5--0--0--0-----------------| 
    >        >        >     >        >        >       

play Chorus 4x 




Short Solo 

D#|-------------------------------------------------|-------------------------------------------------| 
A#|-11-------13-------11----10-------11----10-11----|-10-------10-------10----10-------10-------------| 
F#|-------12-------12-------------12-------------12-|----11-------11-------11----11-------11----11-12-| 
C#|----12-------12-------12----12-------12----------|-------12-------12-------------12-------12-------| 
G#|-------------------------------------------------|-------------------------------------------------| 
C#|-------------------------------------------------|-------------------------------------------------| 

D#|-------------------------------------------------|--------------------------------------------------------| 
A#|-11-------13-------11----10-------11----10-11----|-10-------10-------10-----------------------------------| 
F#|-------12-------12-------------12-------------12-|----11-------11-------11-13-11---10h11-10-11-10-11------| 
C#|----12-------12-------12----12-------12----------|-------12-------12---------------------------------12-9-| 
G#|-------------------------------------------------|--------------------------------------------------------| 
C#|-------------------------------------------------|--------------------------------------------------------| 



Heavy Bridge 

D#|---------------------------------|--------------------------------| 
A#|---------------------------------|--------------------------------| 
F#|---------------------------------|--------------------------------| 
C#|---------------------------------|--------------------------------| play 2x 
G#|-0---2---3---6---5---3---2---3---|-0---2---3---6---5--------------| 
C#|-0---2---3---6---5---3---2---3---|-0---2---3---6---5--------------| 
  


Bridge 2 

D#|--------------------------------------------------|-------------------------------------------------| 
A#|--------------------------------------------------|-------------------------------------------------| 
F#|--8--8--8--8--8--8--8--8--------------------------|-8--8--8--8--8--8--8--8--7--7--7--7--7--7--7--7--| 
C#|--8--8--8--8--8--8--8--8--9--9--9--9--9--9--9--9--|-8--8--8--8--8--8--8--8--7--7--7--7--7--7--7--7--| 
G#|--6--6--6--6--6--6--6--6--9--9--9--9--9--9--9--9--|-6--6--6--6--6--6--6--6--5--5--5--5--5--5--5--5--| 
C#|--------------------------9--9--9--9--9--9--9--9--|-------------------------------------------------| 
    play 2x 



Outro Chorus 

D#|------------------------------------| 
A#|------------------------------------| 
F#|-------------------------2----------| 
C#|-------------------------2----------| resst one bar, then come in  
G#|-----------------0-------0----------| 
C#|-----------------0------------------| 


D#|-------------------------------------------------|-------------------------------------------------| 
A#|-------------------------------------------------|-------------------------------------------------| 
F#|-4--4--4--4--4--4--4--4--------------------------|----------------------------------2--2--2--2--2--| 
C#|-4--4--4--4--4--4--4--4--4--4--4--4--4--4--4--4--|-5--5--5--5--5--5--5--5--0--0--0--2--2--2--2--2--| 
G#|-2--2--2--2--2--2--2--2--4--4--4--4--4--4--4--4--|-5--5--5--5--5--5--5--5--0--0--0--0--0--0--0--0--| 
C#|-------------------------4--4--4--4--4--4--4--4--|-5--5--5--5--5--5--5--5--0--0--0-----------------| 
    >        >        >     >        >        >       

   play above 2 bars 6x total 



Ending 
D#|-------------------------------------------------| 
A#|-------------------------------------------------| 
F#|-------------------------------------------------| 
C#|-0--------1--------0--0--0-----------------------| 
G#|-0--0--0--1--0--0--0--0--0-----------------------| 
C#|-0--0--0--1--0--0--0--0--0-----------------------| 
       PM PM    PM PM 



************************************ 

| >   Accented note 
| PM  Palm mute 
| TR  Trill 

************************************ 
  

top 5 | entwine
top rock'n roll
Outras músicas do artista letras do(a) Entwine
Top cifras »Top artistas »
Petaxxon Comunicação Online
Cifras.com.br - Melhor e mais completo site de cifras e tablaturas do Brasil
Mais de 1 milhão de acordes de músicas cadastradas desde 2003
As informações contidas no nosso site são colaborações de seus usuários e podem conter erros, sendo assim, não nos responsabilizamos sobre nenhuma destas.
close
menos
mais
close
Cor dos acordes:

Cor da letra:

 

save
close
close
 
redimensionar