Cifras e Tablaturas
Eric Clapton

Eric Clapton

I'll Be Seeing You

Cifras Cancelar Versão de Impressão
cifras

Eric Clapton - I'll Be Seeing You

fixar na tela  
Exibindo: vídeo-aula ver clipes redimensionar
  
 Intro                         1st Verse 
  Q=67(8=s8) 
  D     D#°7    Em7    A7 A7+5  D             F#7 
 4/4 
  Gtr I (Clean El. Gtr.) 
  q  q  q  q    q  E E q  q     q  q  q  q    q  q  q  q 
|-------------|--------5-----||----------5--|-------0--0--| 
|-7--7--7--7--|-8--8---5--6--||-7--7--7--7--|-2--2--2--2--| 
|-7--7--5--5--|-7--7---6--6--||-7--7--7--7--|-3--3--3--3--| 
|-7--7--7--7--|-9--9---5--5--||-7--7--7--7--|-2--2--2--2--| 
|-5--5--6--6--|-7--7---------||-5--5--5--5--|-------------| 
|-------------|------7-5--5--||-------------|-2--2--2--2--| 


  Em    B7      Em                          A7     A7+5 
  q  q  q  q    q  q  q  q    q  q  q  q    q  E E q  q 
|-------------|-------------|-------7--7--|-5--5----------| 
|-8--8--7--7--|-8--8--8--8--|-8--8--8--8--|-5--5---6--6---| 
|-9--9--8--8--|-9--9--9--9--|-9--9--9--9--|-6--6---6--6---| 
|-9--9--7--7--|-9--9--9--9--|-9--9--9--9--|-5--5---5--5---| 
|-7--7--------|-7--7--7--7--|-7--7--7--7--|------0--------| 
|-------7--7--|-------------|-------------|-5--5---5--5---| 


                                Bridge 
                              $ 
  D6                             Bm 
  q  q  q  q    q   q   q  q     q  q  q  q    q  q  q  q 
|-7--7--7--7--|-7--10--10-----||-------------|--------------| 
|-7--7--7--7--|-7---7---7--7--||-7--7--7--7--|-7--7--7--7---| 
|-7--7--7--7--|-7---7---7--7--||-7--7--7--7--|-7--7--7--7---| 
|-7--7--7--7--|-7---7---7--7--||-9--9--9--9--|-9--9--9--9---| 
|-5--5--5--5--|-5---5---5--5--||-9--9--9--9--|-9--9--9--9---| 
|-------------|---------------||-------------|--------------| 


  Em                  Em7     A7                  A7+5 
  q  q  q  q    q  q  q  q    q  q  q  q    q  q  q  q 
|-------------|-------------|-------------|--------------| 
|-8--8--8--8--|-8--8--8--8--|-5--5--5--5--|-5--5--6--6---| 
|-9--9--9--9--|-9--9--7--7--|-6--6--6--6--|-6--6--6--6---| 
|-9--9--9--9--|-9--9--9--9--|-5--5--5--5--|-5--5--5--5---| 
|-7--7--7--7--|-7--7--7--7--|-------------|--------------| 
|-------------|-------------|-5--5--5--5--|-5--5--5--5---| 


                               2nd & 3rd Verses 
  D              A13A7+5        D             F#7 
  q  q  q  E E   q  q  q  q     q  q  q  q    q  q  q  q 
|--------------|-------------||----------5--|-------0--0---| 
|-7--7--7--7---|-7--6--6--6--||-7--7--7--7--|-2--2--2--2---| 
|-7--7--7--7---|-6--6--6--6--||-7--7--7--7--|-3--3--3--3---| 
|-7--7--7--7---|-5--5--5--5--||-7--7--7--7--|-2--2--2--2---| 
|-5--5--5--5-x-|-------------||-5--5--5--5--|--------------| 
|------------x-|-5--5--5--5--||-------------|-2--2--2--2---| 


  Em    B7      Em                          A7 
  q  q  q  q    q  q  q  q    q  q  q  q    q  q  q  q 
|-------------|-------------|-------------|--------------| 
|-8--8--7--7--|-8--8--8--8--|-8--8--8--8--|-5--5--5--5---| 
|-9--9--8--8--|-9--9--9--9--|-9--9--9--9--|-6--6--6--6---| 
|-9--9--7--7--|-9--9--9--9--|-9--9--9--9--|-5--5--5--5---| 
|-7--7--------|-7--7--7--7--|-7--7--7--7--|--------------| 
|-------7--7--|-------------|-------------|-5--5--5--5---| 


  Am7           B7            Em            F#7 
  q  q  q  q    q  q  q  q    q  q  q  q    q  q  q  q 
|-------------|-------------|-------------|-------0--0---| 
|-5--5--5--5--|-7--7--7--7--|-8--8--8--8--|-2--2--2--2---| 
|-5--5--5--5--|-8--8--8--8--|-9--9--9--9--|-3--3--3--3---| 
|-5--5--5--5--|-7--7--7--7--|-9--9--9--9--|-2--2--2--2---| 
|-------------|-------------|-7--7--7--7--|--------------| 
|-5--5--5--5--|-7--7--7--7--|-------------|-2--2--2--2---| 


                                    To Coda 
  Bm7           E9             Em7 
  q  q  q  q    q  E E q  q    q  q  q   q 
|-------------|-7--7---7--7--|----------10--| 
|-7--7--7--7--|-7--7---7--7--|-8--8--8---8--| 
|-7--7--7--7--|-7--7-x-7--7--|-7--7--7---7--| 
|-7--7--7--7--|-6--6-x-6--6--|-9--9--9---9--| 
|-------------|-7--7-x-7--7--|-7--7--7---7--| 
|-7--7--7--7--|--------------|--------------| 


  Gm            D             Em7    A7+5 
  q  q  q  q    q  q  q  q    q  E E q  q 
|-3--3--3-----|-------------|--------------|| 
|-3--3--3--3--|-7--7--7--7--|-8--8---6--6--|| 
|-3--3--3--3--|-7--7--7--7--|-7--7---6--6--|| 
|-5--5--5--5--|-7--7--7--7--|-9--9---5--5--|| 
|-5--5--5--5--|-5--5--5--5--|-7--7-x-------|| 
|-------------|-------------|--------5--5--|| 


 Guitar Solo 
  D                  F#7                 Em        B7        Em 
  q  q     q   q     q  q      q   q     q     q   q   q     q   q    q    q 
|--------------5---|-----------0---0---|-------------------|-------------------| 
|-7--7-----7---7---|-2--2------2---2---|-8-----8---7---7---|-8---8----8----8---| 
|-7--7-----7---7---|-3--3------3---3---|-9-----9---8---8---|-9---9----9----9---| 
|-7--7-----7---7---|-2--2------2---2---|-9-----9---7---7---|-9---9----9----9---| 
|-5--5-----5---5---|-------------------|-7-----7-----------|-7---7----7----7---| 
|------------------|-2--2------2---2---|-----------7---7---|-------------------| 
| 
| Gtr II (Ac. Gtr.) 
|          ~~               ~~~~~~ 
| Q  E a E Q.    E   Q  E a E +Q.    E   E a E E E E Q   E   E E E E +E  Q   E 
|------------------|-------------------|-------------------|-------------------| 
|------------------|-------------------|-------------------|-------------------| 
|----------7-------|-------------------|-------------------|-------------------| 
|----------7-------|-------------------|---4h5-5-5-4-4-----|-4-2-2-1-(1)-2-----| 
|------7s9---------|----4-2s4-(4)------|-------------------|-------------------| 
|------------------|-------------------|-------------------|-------------------| 


                         A7     A7+5    D6 
  q     q      q   q     q  E E q  q    q   q    q   q 
|--------------7---7---|-5--5---------|-7---7----7---7--| 
|-8-----8------8---8---|-5--5---6--6--|-7---7----7---7--| 
|-9-----9------9---9---|-6--6---6--6--|-7---7----7---7--| 
|-9-----9------9---9---|-5--5---5--5--|-7---7----7---7--| 
|-7-----7------7---7---|------0-------|-5---5----5---5--| 
|----------------------|-5--5---5--5--|-----------------| 
| 
|                                             ~~~~~~ 
|       |-3--| 
| E  E +E  E E E Q   E   Q  E E Q  Q    E E E E +H 
|----------------------|--------------|-----------------| 
|----------------------|--------------|-----------------| 
|----------------------|--------------|-------4-(4)-----| 
|---/5-(5)-5-5-4-4-----|------2-1-----|-3---4-----------| 
|----------------------|--------------|-----------------| 
|----------------------|--------------|-----------------| 


                            D.S. al Coda 
  q        q          q              q 
|-7-------10---------10------------------|| 
|-7--------7----------7--------------7---|| 
|-7--------7----------7--------------7---|| 
|-7--------7----------7--------------7---|| 
|-5--------5----------5--------------5---|| 
|----------------------------------------|| 
| 
|                       |-3-| |-3-| 
| S S S S  S S T T S  S T T T S S S +Q 
|----------------------------------------|| 
|-------2--3-5-5p3-2----2h3p2---2--------|| 
|-----4---------------4-------4---4-(4)--|| 
|---4------------------------------------|| 
|----------------------------------------|| 
|----------------------------------------|| 


                     Outro- Guitar Solo 
  & 
  Gm          N.C.    D                  F#7 
             2/4     4/4 
   W          W       q    q   q   q     q  q    q    q 
|-----------|------||--------------5---|---------0----0--| 
|-^3--------|------||-7----7---7---7---|-2--2----2----2--| 
|-^3--------|------||-7----7---7---7---|-3--3----3----3--| 
|-^5--------|------||-7----7---7---7---|-2--2----2----2--| 
|-^5--------|------||-5----5---5---5---|-----------------| 
|-----------|------||------------------|-2--2----2----2--| 
| 
| Gtr III (Clean El. Gtr.) 
|                          ~~~~~~~       ~    ~~~~~~ 
|  W          W       Q  a Q  +Q.    E   Q  e E +E  e Q 
|-----------|------||------------------|-----------------| 
|-----------|------||----5s7--(7)----5-|-5---------------| 
|-----------|------||------------------|----7-6-(6)-7----| 
|-----------|------||------------------|-----------------| 
|-----------|------||------------------|-----------------| 
|-----------|------||------------------|-----------------| 


  Em        B7          Em                              A7     A7+5 
  q     q   q   q       q  q  q  q    q   q   q    q    q  E E q  q 
|---------------------|-------------|---------7----7--|-5--5-----------| 
|-8-----8---7---7-----|-8--8--8--8--|-8---8---8----8--|-5--5---6--6----| 
|-9-----9---8---8-----|-9--9--9--9--|-9---9---9----9--|-6--6---6--6----| 
|-9-----9---7---7-----|-9--9--9--9--|-9---9---9----9--|-5--5---5--5----| 
|-7-----7-------------|-7--7--7--7--|-7---7---7----7--|------0---------| 
|-----------7---7-----|-------------|-----------------|-5--5---5--5----| 
| 
|             ~         ~                 ~     ~~~~~~~~~~ 
| E a E e E e Q   a E   H     Q  Q    E E E E E Q.      Q  E E Q  e E 
|---------------------|-------------|-----------------|----------------| 
|---7h8-8-8-7-7---8p7-|-------------|---8-8-8-7-7-----|----------------| 
|---------------------|-9-----8--9--|-----------------|-9----9-8--9----| 
|---------------------|-------------|-----------------|----------------| 
|---------------------|-------------|-----------------|----------------| 
|---------------------|-------------|-----------------|----------------| 


  D6 
   q   q      q   q      q    q   q      q 
|--7---7------7---7--|---7---10--10-------------| 
|--7---7------7---7--|---7----7---7------7------| 
|--7---7------7---7--|---7----7---7------7------| 
|--7---7------7---7--|---7----7---7------7------| 
|--5---5------5---5--|---5----5---5------5------| 
|--------------------|--------------------------| 
| 
|         ~~~~~~~~~~~~~~~~~~ 
|  Q   E  E  +H         +Q    Q   E   E  S S  E 
|--------------------|---------------------9-10-| 
|--------12-(12)-----|-(12)-------------12------| 
|-10--11-------------|--------------/11---------| 
|--------------------|--------------------------| 
|--------------------|--------------------------| 
|--------------------|--------------------------| 


  Bm 
   q         q            q    q    q      q    q     q 
|---------------------------------|--------------------------| 
|--7---------7------------7----7--|-7------7----7-----7------| 
|--7---------7------------7----7--|-7------7----7-----7------| 
|--9---------9------------9----9--|-9------9----9-----9------| 
|--9---------9------------9----9--|-9------9----9-----9------| 
|---------------------------------|--------------------------| 
| 
|  e  a  E  +E   T  T  S  E  e Q    E   E  E  e e  e  e  E 
|-12-12s14-(14)-12h14p12-10h12----|---/14-12-10-9----12------| 
|---------------------------------|---------------12----12---| 
|---------------------------------|--------------------------| 
|---------------------------------|--------------------------| 
|---------------------------------|--------------------------| 
|---------------------------------|--------------------------| 


  Em                                           Em7 
    q   q          q   q           q   q        q         q 
|--------------------------------|------------------------------| 
|---8---8----------8---8---------|-8---8--------8---------8-----| 
|---9---9----------9---9---------|-9---9--------7---------7-----| 
|---9---9----------9---9---------|-9---9--------9---------9-----| 
|---7---7----------7---7---------|-7---7--------7---------7-----| 
|--------------------------------|------------------------------| 
| 
|       |---3----|                     |--3--|  |---3---| |-3-| 
|  +Q   E  a  E  E Q  +S   S S S   Q   E  E  E  E  E  a E E E E 
|---------10s12-10-9--(9)-10p9---|------------------------------| 
|-(12)---------------------------|-------12----10---------------| 
|--------------------------------|----11----11----11-10s9-7---7-| 
|--------------------------------|--------------------------9---| 
|--------------------------------|------------------------------| 
|--------------------------------|------------------------------| 


  A7                                A7+5 
  q   q  q  q           q     q     q   q 
|-------------------|-------------------------| 
|-5---5--5--5-------|---5-----5-----6---6-----| 
|-6---6--6--6-------|---6-----6-----6---6-----| 
|-5---5--5--5-------|---5-----5-----5---5-----| 
|-------------------|-------------------------| 
|-5---5--5--5-------|---5-----5-----5---5-----| 
| 
| ~~ 
|                       |-3-| 
| H.        S S S S   a E E E S S E Q   e E 
|-------------------|-------------------------| 
|-------------------|-------------------------| 
|-6-----------------|---------------------6---| 
|---------------7-9-|-7h9-7---7--------/9-----| 
|-------------9-----|-------9---9-------------| 
|-------------------|-------------------------| 


  D 
  q    q     q       E E 
|------------------------| 
|-7----7-----7-------7---| 
|-7----7-----7-------7---| 
|-7----7-----7-------7---| 
|-5----5-----5-------5-x-| 
|----------------------x-| 
| 
| E E  e  E  E  E  a E E 
|------------------------| 
|-----------12-10--------| 
|-7-9-10-11-------10s9---| 
|------------------------| 
|------------------------| 
|------------------------| 


  A13A7+5                        D 
  q  q     q           q          q      q      q   q 
|------------------------------|-----------------------*| 
|-7--6-----6-----------6-------|--7------7------7---7--*| 
|-6--6-----6-----------6-------|--7------7------7---7--*| 
|-5--5-----5-----------5-------|--7------7------7---7--*| 
|------------------------------|--5------5------5---5--*| 
|-5--5-----5-----------5-------|-----------------------*| 
| 
|                                           ~~~~~~~ 
|          |--3--|     |--3--| 
| Q  E  E  E  E  E  a  E  E  E    Q   a  E  E  +Q   Q 
|------------10-12-12s14-10-12-|-10--12s14-14-(14)-----*| 
|------10-12-------------------|-----------------------*| 
|------------------------------|-----------------------*| 
|------------------------------|-----------------------*| 
|------------------------------|-----------------------*| 
|------------------------------|-----------------------*|
  

cifra enviadasem correções
enviado porenviada por:carlluz
top 5 | eric clapton
top rock'n roll
Outras músicas do artista letras do(a) Eric Clapton
Top cifras »Top artistas »
Petaxxon Comunicação Online
Cifras.com.br - Melhor e mais completo site de cifras e tablaturas do Brasil
Mais de 1 milhão de acordes de músicas cadastradas desde 2003
As informações contidas no nosso site são colaborações de seus usuários e podem conter erros, sendo assim, não nos responsabilizamos sobre nenhuma destas.
close
menos
mais
close
Cor dos acordes:

Cor da letra:

 

save
close
close
 
redimensionar