Eric Johnson

Eric Johnson

Steves Boogie
Composição de (Eric Johnson)
Legend 
L - tied note 
x - dead note 
h - hammer on/pull off 
b - bend 
s - slide 
~ - vibrato 
g - ghost note 
> - accentuated note 
t - trill 
M - palm mute 
. - staccato 
P - popping (bass) 
S - slapping (bass) 
+ - tapping 
W - wide vibrato 
< - fade in 
w - whammy bar 
= - tremolo picking 
v - brush up 
^ - brush down 
V - pick stroke up 
n - pick stroke down 


E |--15----14----13----12------|--11----10----9-----8-------| 
B |--17----16----15----14------|--13----12----11----10------| 
G |----------------------------|----------------------------| 
D |----------------------------|----------------------------| 
A |----------------------------|----------------------------| 
E |----------------------------|----------------------------| 


----------------------------|----------------------------| 
----------------------------|----------------------------| 
--------2--------2----------|--2-----4--------2----------| 
--------2--------4----------|--2-----5--------2----------| 
--0-----------0-----0--0----|-----0--------------0--0----| 
----------------------------|----------------------------| 


----------------------------|----------------------------| 
----------------------------|----------------------------| 
--2-----2--------2----------|--2-----4--------2----------| 
--2-----4--------2----------|--2-----5--------2----------| 
-----0--------0-----0--0----|-----0--------0-------------| 
----------------------------|--------------------0L-0----| 


----------------------------|----------------------------| 
----------------------------|----------------------------| 
--------2--------2----------|--2-----4--------2----------| 
--------2--------4----------|--2-----5--------2----------| 
--0-----------0-----0--0----|-----0--------------0--0----| 
----------------------------|----------------------------| 


----------------------------|----------------------------| 
----------------------------|----------------------------| 
--2-----2--------2----------|--2-----4--------2----------| 
--2-----4--------2----------|--2-----5--------2----------| 
-----0--------0-----0--0----|-----0--------0-----3h-4----| 
----------------------------|----------------------------| 


----------------------------|----------------------------| 
--------3--------3----------|--3-----5--------3----------| 
--------2--------5h-4-------|--2-----5--------2----------| 
--0-----------0g-------0----|-----0--------0--------0----| 
----------------------------|----------------------------| 
----------------------------|----------------------------| 


----------------------------|----------------------------| 
--3-----3--------3----------|--3-----5--------3----------| 
--2-----5--------2----------|--2-----5--------2----------| 
-----0----------------------|-----0-----0--0-------------| 
----------------------------|--------------------3h-4----| 
----------------------------|----------------------------| 


----------------------------|----------------------------| 
----------------------------|----------------------------| 
--------2--------2----------|--2-----4--------2----------| 
--------2--------4----------|--2-----5--------2----------| 
--0-----------0-----0--0----|-----0--------0g----0--0----| 
----------------------------|----------------------------| 


----------------------------|----------------------------| 
----------------------------|----------------------------| 
--2-----2--------2----------|--2-----4--------2----------| 
--2-----4--------2----------|--2-----5--------2----------| 
-----0--------0-----0--0----|-----0--------0-------------| 
----------------------------|--------------------3h-4----| 


----------------------------|----------------------------| 
----------------------------|----------------------------| 
----------------------------|----------------------------| 
--------------2--------4----|--------2--------4----------| 
--------2h-4-----4s-5-------|--2h-4-----4s-5-------------| 
--0-------------------------|----------------------------| 


--6-----------5-------------|----------------------------| 
--6L-6L-6-----5--------5----|--7-------------------------| 
-----------------7-----5----|--7-----5s-4----------------| 
--------------------7-------|-----0--5s-4--2--4----------| 
----------------------------|--------------------3b------| 
----------------------------|----------------------------| 


----------------------------|----------------------------| 
----------------------------|----------------------------| 
--------2--------2----------|--2-----4--------2----------| 
--------2--------4----------|--2-----5--------2----------| 
--0-----------0--------0----|--------------0-----0--0----| 
----------------------------|----------------------------| 


----------------------------|--5-------------------------| 
----------------------------|--5-------------------------| 
--2-----2--------2----------|----------------------------| 
--2-----4--------2----------|----------------------------| 
--------------0-----0--0----|----------------------------| 
----------------------------|--------3L----------3-------| 


----------------------------|----------------------------| 
----------------------------|----------------------------| 
--------2--------2----------|--2-----4--------2----------| 
--------2--------4----------|--2-----5--------2----------| 
--0-----------0-----0--0----|-----0--------------0--0----| 
----------------------------|----------------------------| 


----------------------------|----------------------------| 
----------------------------|----------------------------| 
--2-----2--------2----------|--2-----4--------2----------| 
--2-----4--------2----------|--2-----5--------2----------| 
-----0--------0-----0--0----|-----0--------0-----3h-4----| 
----------------------------|----------------------------| 


----------------------------|----------------------------| 
----------------------------|----------------------------| 
--------2--------2----------|--2-----4--------2----------| 
--------2--------4----------|--2-----5--------2----------| 
--0-----------0-----0--0----|-----0--------------0--0----| 
----------------------------|----------------------------| 


----------------------------|----------------------------| 
----------------------------|----------------------------| 
--2-----2--------2----------|--2-----4--------2----------| 
--2-----4--------2----------|--2-----5--------2----------| 
-----0--------0-----0--0----|-----0--------0-----3h-4----| 
----------------------------|----------------------------| 


----------------------------|----------------------------| 
----------------------------|----------------------------| 
-----------------------0----|-----------0h-2--0----------| 
--0--------------4----------|--------------------4s-2----| 
--------3h-5M---------------|--3h-5M---------------------| 
----------------------------|----------------------------| 


----------------------------|----------------------------| 
----------------------------|----------------------------| 
-----------------------0----|----------------------------| 
--0--------------4----------|--5s-4--2--2h-0--0----------| 
--------3h-5M---------------|--------------------3h-4----| 
----------------------------|----------------------------| 


----------------------------|----------------------------| 
----------------------------|----------------------------| 
--------2--------2----------|--2-----4--------2----------| 
--------2--------4----------|--2-----5--------2----------| 
--0-----------0-----0--0----|-----0--------------0--0----| 
----------------------------|----------------------------| 


----------------------------|----------------------------| 
----------------------------|----------------------------| 
--2-----2--------2----------|--2-----4--------2----------| 
--2-----4--------2----------|--2-----5--------2----------| 
-----0--------0-----0--0----|-----0--------0-----3h-4----| 
----------------------------|----------------------------| 


----------------------------|----------------------------| 
----------------------------|----------------------------| 
----------------------------|----------------------------| 
--------------2--------4----|--------2--------4--5M-7M---| 
--------2h-4-----4s-5-------|--2h-4-----4s-5-------------| 
--0-------------------------|----------------------------| 


--------------5-------------|----------------------------| 
--8-----------5--------5----|--7-------------------------| 
--8L-8L-8--------7-----5----|--7-----5s-4--2-------------| 
--------------------7-------|-----0--5s-4--2--4----------| 
----------------------------|--------------------3b------| 
----------------------------|----------------------------| 


----------------------------|----------------------------| 
----------------------------|----------------------------| 
--------2--------4----------|--2-----4--------2----------| 
--------2--------2----------|--2-----5--------2----------| 
--0-----------0-------------|-----0--------0-----0--0----| 
----------------------------|----------------------------| 


----------------------------|--------5L----------5-------| 
----------------------------|--------5L----------5-------| 
--2-----4--------2----------|--2-------------------------| 
--2-----5--------2----------|--2-------------------------| 
-----0--------0-------------|----------------------------| 
----------------------------|----------------------------| 


----------------------------| 
--------12----12----12L12---| 
--------12----12----12------| 
-----------------14----14---| 
----------------------------| 
----------------------------| 


-----------------------------------------------------------------------------12> 
--12L12----------------------12b---------14L---------14------------------------- 
--12L12----------------------12L---------12L---------12------------------------- 
-------------------------------------------------------------------------------- 
-------------------------------------------------------------------------------- 
-------------------------------------------------------------------------------- 


-----------------------| 
-----------------------| 
-----------------------| 
-----------------------| 
-----------------------| 
-----------------------| 


-------------------------------------------------------------------------------- 
--------------------------15L15----------------------------------------------15- 
--------------------------17L17----------------------------------------------17- 
--------------------------16L16----------------------------------------------16- 
-------------------------------------------------------------------------------- 
-------------------------------------------------------------------------------- 


-----------------------| 
-----------------------| 
-----------------------| 
-----------------------| 
-----------------------| 
-----------------------| 


-------------------------------------------------------------------------------- 
--------------------------17L17L---------------------17----------17L17L--------- 
--------------------------19L19L---------------------19----------19L19---------- 
--------------------------18L18L---------------------18----------18L18---------- 
-------------------------------------------------------------------------------- 
-------------------------------------------------------------------------------- 


--------------------------| 
17------------------------| 
--------------------------| 
--------------------------| 
--------------------------| 
--------------------------| 


-------------------------------------------------------------------------------- 
--------------------------13L13L---------13L---------13----------10------------- 
-----------------------------------------------------------------------------12- 
-------------------------------------------------------------------------------- 
-------------------------------------------------------------------------------- 
-------------------------------------------------------------------------------- 


-----------------------|----------------------------------------------------| 
-----------------------|--10----8h-10h8-------------------------------------| 
---------9-------------|--------------------9-----7-----5h----6-------------| 
-----------------------|--------------------------------------------7-------| 
-----------------------|----------------------------------------------------| 
-----------------------|----------------------------------------------------| 


--------------------5>------|--------------------7>------| 
--------5L-5L-5-------------|--------7L----7-------------| 
--------5L-5L-5-------------|--------7L----7-------------| 
--------7L-7L-7-------------|--------9L----9-------------| 
--5-------------------------|----------------------------| 
----------------------------|--0-------------------------| 


----------------------------|--------12------------------| 
--------------------12------|--13h14----14h13------------| 
-----14-------14------------|-----------------14-11-11---| 
-----------14----14---------|----------------------------| 
----------------------------|----------------------------| 
----------------------------|----------------------------| 


----------------------------|----------------------------| 
--10----8-------------------|----------------------------| 
-----9--------11-9----------|-----12-9-----9-------------| 
-----------------------9s---|--11-------------11.--------| 
----------------------------|----------------------------| 
----------------------------|--------------------3L------| 


----------------------------|----------------------------| 
----------------------------|----------------------------| 
--------------2M-2M-4M-2M---|--------------2M-2M-4M------| 
--0--0M-3M-4M---------------|--0M-0M-3M-4M---------------| 
----------------------------|----------------------------| 
--3-------------------------|----------------------------| 


----------------------------|----------------------------| 
----------------------------|----------------------------| 
--------------4M-4M-5M-4M---|--------------4M-4M-6M------| 
--2M-2M-3M-5M---------------|--2M-2M-5M-6M---------------| 
----------------------------|----------------------------| 
----------------------------|----------------------------| 


----------------------------|----------------------------| 
----------------------------|----------------------------| 
--------------2M-2M-4M-2M---|--------------2M-2M-4M------| 
--0M-3M-3M-4M---------------|--0M-0M-3M-4M---------------| 
----------------------------|----------------------------| 
----------------------------|----------------------------| 


--------------------0L------|--0-------------|--15----14----13----12------| 
--------------0L----0L------|--0-------------|--17----16----15----14------| 
-----------2----------------|----------------|----------------------------| 
--2h-5s-6M------------------|----------------|----------------------------| 
----------------------------|----------------|----------------------------| 
----------------------------|--3-------------|----------------------------| 


--13----10------------------|----------------------------| 
--13----12------------------|----------------------------| 
----------------------------|--------2--------2----------| 
--------------7h-10---------|--------2--------4----------| 
--------------7h-10---------|--0-----------0-----0--0----| 
----------------------------|----------------------------| 


----------------------------|----------------------------| 
----------------------------|----------------------------| 
--2-----4--------2----------|--2-----2--------2----------| 
--2-----5--------2----------|--2-----4--------2----------| 
-----0--------------0--0----|-----0--------0-----0--0----| 
----------------------------|----------------------------| 


----------------------------|----------------------------| 
----------------------------|----------------------------| 
--2-----4--------2----------|--------2--------2----------| 
--2-----5--------2----------|--------2--------4----------| 
-----0--------0-----3h-4----|--0-----------0-----0--0----| 
----------------------------|----------------------------| 


----------------------------|----------------------------| 
----------------------------|----------------------------| 
--2-----4--------2----------|--2-----2--------2----------| 
--2-----5--------2----------|--2-----4--------2----------| 
-----0--------------0--0----|-----0--------0-----0--0----| 
----------------------------|----------------------------| 


----------------------------|----------------------------| 
----------------------------|-----------------------1----| 
--2-----2--------2----------|--------------0--1h-2-------| 
--2-----2--------2----------|--0-----3--4----------------| 
-----0--------0-----3h-4----|----------------------------| 
----------------------------|----------------------------| 


-----1h-2--3----------------|----------------------------| 
--3-----------------6s-7----|----------------------------| 
--------------------6s-7----|--7-----5-----------7-------| 
----------------------------|--7-----5--0--3h-4--7-------| 
----------------------------|----------------------------| 
----------------------------|----------------------------| 


----------------------------|----------------------------| 
----------------------------|----------------------------| 
--5--4--2-------------------|--------2--------2----------| 
--5--4--2--0--2--4----------|--------2--------4----------| 
--------------------3h-4----|--0-----------0-----0--0----| 
----------------------------|----------------------------| 


----------------------------|----------------------------| 
----------------------------|----------------------------| 
--2-----4--------2----------|--2-----2--------2----------| 
--2-----5--------2----------|--2-----4--------2----------| 
-----0--------------0--0----|-----0--------0-----0--0----| 
----------------------------|----------------------------| 


----------------------------|----------------------------| 
----------------------------|----------------------------| 
--2-----4--------2----------|----------------------------| 
--2-----5--------2----------|--------------2--------4----| 
-----0--------0-------------|--------2h-4-----4s-5-------| 
--------------------3h-4----|--0-------------------------| 


----------------------------|--8--10-8-----5-------------| 
----------------------------|--8--10-8-----5--------5----| 
--------------------0-------|-----------------7-----5----| 
--------2--------4----------|--------------------7-------| 
--2h-4-----4s-5-------------|----------------------------| 
----------------------------|----------------------------| 


----------------------------|----------------------------| 
--7-------------------------|----------------------------| 
--7-----5s-4----------------|--------2--------2----------| 
-----7--5s-4--2--4----------|--------2--------4----------| 
--------------------0h-4----|--0-----------0-----0--0----| 
----------------------------|----------------------------| 


----------------------------|----------------------------| 
----------------------------|----------------------------| 
--2-----4--------2----------|--2-----2--------2----------| 
--2-----5--------2----------|--2-----4--------2----------| 
-----0--------------0--0----|-----0--------0-----0--0----| 
----------------------------|----------------------------| 


--5-------------------------|----------------------------| 
--5-------------------------|----------------------------| 
----------------------------|--------2--------2----------| 
----------------------------|--------2--------4----------| 
----------------------------|--0-----------0-----0--0----| 
--------3L----------3-------|----------------------------| 


----------------------------|----------------------------| 
----------------------------|----------------------------| 
--2-----4--------2----------|--2-----2--------2----------| 
--2-----5--------2----------|--2-----4--------2----------| 
-----0--------------0--0----|-----0--------0-----0--0----| 
----------------------------|----------------------------| 


----------------------------|----------------------------| 
--5-------------------------|----------------------------| 
--5--2----------------------|--------2--------2----------| 
----------------------------|--------2--------4----------| 
----------------------------|--0-----------0-----0--0----| 
--------------3L-------3----|----------------------------| 


----------------------------|----------------------------| 
----------------------------|----------------------------| 
--2-----4--------2----------|--2--------------2----------| 
--2-----5--------2----------|--2-----------4--2----------| 
-----0--------------0--0----|----------------------------| 
----------------------------|----------------------------| 


----------------------------|----------------------------| 
----------------------------|----------------------------| 
--2-------------------------|--------2--------2----------| 
--2--5s-4-----2--4----------|--------2--------4----------| 
-----------0--------3s-2----|--0-----------0-----0--0----| 
----------------------------|----------------------------| 


----------------------------|----------------------------| 
----------------------------|----------------------------| 
--2-----4--------2----------|--2-----2--------2----------| 
--2-----5--------2----------|--2-----4--------2----------| 
-----0--------------0--0----|-----0--------0-----0--0----| 
----------------------------|----------------------------| 


----------------------------|--10----8-----5--5----------| 
----------------------------|--10----8-------------------| 
--2-----4-----2-------------|--------------7--8h-7--5----| 
--2-----5-----2-------------|----------------------------| 
-----0----------------------|----------------------------| 
----------------------------|----------------------------| 


-----5----------------------|----------------------------|----------|| 
-----5-----5-----5s-4--2----|----------------------------|----------|| 
--7-----7--5-----5s-4--2----|--5s-4--2-------------------|--2-------|| 
--------------7-------------|--5s-4--2-----2--4----------|--2-------|| 
----------------------------|--------------------3s-2----|--0-------|| 
----------------------------|-----------0----------------|----------|| 


E |----|----|----|----|----|----|----|----|----|----|----|----|----|----|----| 
B |----|----|----|----|----|----|----|----|----|----|----|----|----|----|----| 
G |----|----|----|----|----|----|----|----|----|----|----|----|----|----|----| 
D |----|----|----|----|----|----|----|----|----|----|----|----|----|----|----| 
A |----|----|----|----|----|----|----|----|----|----|----|----|----|----|----| 
E |----|----|----|----|----|----|----|----|----|----|----|----|----|----|----| 

                                                        
----|----|----|----|----|----|----|----|----|----|----| 
----|----|----|----|----|----|----|----|----|----|----| 
----|----|----|----|----|----|----|----|----|----|----| 
----|----|----|----|----|----|----|----|----|----|----| 
----|----|----|----|----|----|----|----|----|----|----| 
----|----|----|----|----|----|----|----|----|----|----| 

                 w                                    
----------------------------|-------|-------|-------| 
----------------------------|-------|-------|-------| 
--------2L----2L-2L-2L------|--2L---|--2----|-------| 
--------2L----2L-2L-2L------|--2L---|--2----|-------| 
----------------------------|-------|-------|-------| 
----------------------------|-------|-------|-------| 

                 w                                                             
----------------------------|-------|-------|-------|----------------|-------| 
----------------------------|-------|-------|-------|----------------|-------| 
--------2L----2L-2L-2L------|--2L---|--2----|-------|-----7L---------|--7----| 
--------2L----2L-2L-2L------|--2L---|--2----|-------|-----7L---------|--7----| 
----------------------------|-------|-------|-------|----------------|-------| 
----------------------------|-------|-------|-------|----------------|-------| 

                                          w                                    
-------|----------------|----------------------------|-------|-------|-------| 
--7L---|--7-------------|----------------------------|-------|-------|-------| 
--7L---|--7-------------|--------2L----2L-2L-2L------|--2L---|--2----|-------| 
-------|----------------|--------2L----2L-2L-2L------|--2L---|--2----|-------| 
-------|----------------|----------------------------|-------|-------|-------| 
-------|----------------|----------------------------|-------|-------|-------| 

                                                             w            
----------------|----------|-------|-------|----------------------------| 
----------------|----------|-------|-------|----------------------------| 
-----4L---------|--4-------|-------|-------|--------2L----2L-2L-2L------| 
----------------|----------|-------|-------|--------2L----2L-2L-2L------| 
----------------|----------|-------|-------|----------------------------| 
----------------|----------|-------|-------|----------------------------| 

                                                                                
-------|-------|-------|----|----|----|----|----|----|----|----|----|----|----| 
-------|-------|-------|----|----|----|----|----|----|----|----|----|----|----| 
--2L---|--2L---|--2----|----|----|----|----|----|----|----|----|----|----|----| 
--2L---|--2L---|--2----|----|----|----|----|----|----|----|----|----|----|----| 
-------|-------|-------|----|----|----|----|----|----|----|----|----|----|----| 
-------|-------|-------|----|----|----|----|----|----|----|----|----|----|----| 

              
----|-------| 
----|-------| 
----|--2L---| 
----|-------| 
----|-------| 
----|-------| 

                                                                                 
-------------------------------------------------------------------------------- 
-------------------------------------------------------------------------------- 
--2-----------------------------------------------4L-4-------------------------- 
-------------------------------------------------------------------------------- 
-------------------------------------------------------------------------------- 
-------------------------------------------------------------------------------- 

                                 
-----------------------|-------| 
-----------------------|-------| 
-----------------------|--4L---| 
-----------------------|-------| 
-----------------------|-------| 
-----------------------|-------| 

                                                                                 
-------------------------------------------------------------------------------- 
-------------------------------------------------------------------------------- 
--4-----------------------------------------------4L-4L----------4-------------- 
-------------------------------------------------------------------------------- 
-------------------------------------------------------------------------------- 
-------------------------------------------------------------------------------- 

                                                                          
-----------------------|-------|-------|-------|--5-------------|-------| 
-----------------------|-------|-------|-------|--5-------------|-------| 
-----------------------|--2L---|--2----|-------|----------------|-------| 
-----------------------|-------|-------|-------|----------------|-------| 
-----------------------|-------|-------|-------|----------------|-------| 
-----------------------|-------|-------|-------|----------------|-------| 

                         w                                    
-------|----------------------------|-------|-------|-------| 
-------|----------------------------|-------|-------|-------| 
-------|--------2L----2L-2L-2L------|--2L---|--2----|-------| 
-------|--------2L----2L-2L-2L------|--2L---|--2----|-------| 
-------|----------------------------|-------|-------|-------| 
-------|----------------------------|-------|-------|-------| 

                 w                                                             
----------------------------|-------|-------|-------|----------------|-------| 
----------------------------|-------|-------|-------|----------------|-------| 
--------2L----2L-2L-2L------|--2L---|--2----|-------|-----7L---------|--7----| 
--------2L----2L-2L-2L------|--2L---|--2----|-------|-----7L---------|--7----| 
----------------------------|-------|-------|-------|----------------|-------| 
----------------------------|-------|-------|-------|----------------|-------| 

                                          w                                    
-------|----------------|----------------------------|-------|-------|-------| 
--7L---|--7-------------|----------------------------|-------|-------|-------| 
--7L---|--7-------------|--------2L----2L-2L-2L------|--2L---|--2----|-------| 
-------|----------------|--------2L----2L-2L-2L------|--2L---|--2----|-------| 
-------|----------------|----------------------------|-------|-------|-------| 
-------|----------------|----------------------------|-------|-------|-------| 

                                                             w 
----------------|----------|-------|-------|----------------------------| 
----------------|----------|-------|-------|----------------------------| 
-----4L---------|--4-------|-------|-------|--------2L----2L-2L-2L------| 
----------------|----------|-------|-------|--------2L----2L-2L-2L------| 
----------------|----------|-------|-------|----------------------------| 
----------------|----------|-------|-------|----------------------------| 


-------|-------|-------| 
-------|-------|-------| 
--2L---|--2L---|--2----| 
--2L---|--2L---|--2----| 
-------|-------|-------| 
-------|-------|-------| 


-------------------------------------------------------------------------------- 
--------------10----------------------------------10----------------------12---- 
--------------------------11----------9-----------------------11---------------- 
-------------------------------------------------------------------------------- 
-------------------------------------------------------------------------------- 
-------------------------------------------------------------------------------- 


---------9-------------|----------------------------| 
------12L12L-----------|--12-10-------10----8-------| 
-----------------------|--------11-9-----9----------| 
-----------------------|----------------------------| 
-----------------------|----------------------------| 
-----------------------|----------------------------| 


----------------------------| 
--7-------------------------| 
-----9--------9-------------| 
--------9s-11----11s9--7----| 
----------------------------| 
----------------------------| 


-------------------------------------------------------------------------------- 
-------------------------------------------------------------------------------- 
-------------------------------------------------------------------------------- 
--------------------------7----------------------------------------------------- 
--9-----------7-----------------------7-----------5L-5L----------5-------------- 
-----------------------------------------------------------------------------8b- 


-----------------------|--8h-9-----5--5-------------| 
-----------------------|--8h-10-7-----5-------------| 
-----------------------|-----------------7h-5-------| 
-----------------------|----------------------------| 
-----------------------|----------------------------| 
-----------------------|----------------------------| 


----------------------------|----------------------------| 
--5-----8--5----------------|--------------10------------| 
--5h-6--------7--5----------|--9--------------------9----| 
--------------------7-------|----------------------------| 
----------------------------|----------------------------| 
----------------------------|----------------------------| 


----------------------------|----------------------------| 
--8~------------------------|-----2--------2-----0--2h---| 
----------------------------|-----2h-0-----2-----0--2h---| 
----------------------------|-----------2-----2----------| 
--------------9s------------|----------------------------| 
----------------------------|----------------------------| 


----------------------------|----------------------------| 
--0-----2-----5--2-----7s---|--8-----7-----5-------------| 
--0-----2-----5--2-----8s---|--9-----7-----6-------------| 
-----2----------------------|-----------------7----------| 
----------------------------|----------------------------| 
----------------------------|----------------------------| 


-----------------15---------|-------|-------|-------|----------|| 
--2--------2-----15---------|-------|-------|-------|----------|| 
--2-----2--2-----------12---|-------|-------|-------|--2-------|| 
-----2--4-------------------|-------|-------|-------|--2-------|| 
----------------------------|-------|-------|-------|--0-------|| 
----------------------------|-------|-------|-------|----------||

Enviado por: Tercio Moraes

Corrigido por: sem correções