Cifras e Tablaturas
Eruca Sativa

Eruca Sativa

Magoo

Cifras Cancelar Versão de Impressão Print

Eruca Sativa - Magoo

Tom:

  			Intro: 

     MI5                               SOL5    MI5 
 
E|--------------------|--------------------|--------------------| 
B|--------------------|--------------------|--------------------| 
G|--------------------|--------------------|--------------------| 
D|--2-----------------|---------------5----|--2-----------------| 
A|--2-----------------|---------------5----|--2-----------------| 
E|--0-----------------|---------------3----|--0-----------------| 
 


               FA5     MI5 
 
--------------------|---------------------------------| 
--------------------|---------------------------------| 
--------------------|---------------------------------| 
---------------3----|--2------------------------------| 
---------------3----|--2------------------------------| 
---------------1----|--0--0-0---0---0---0-0---0---0---| 
 

                        SOL5     MI5 
 
-------------------------------|---------------------------------| 
-------------------------------|---------------------------------| 
-------------------------------|---------------------------------| 
--------------------------5----|--2------------------------------| 
--------------------------5----|--2------------------------------| 
--0---0-0---0---0---0-0---3----|--0--0-0---0---0---0-0---0---0---| 
 

DO#/5-    DO/5-     SI/5- 
 
---------------------------------| 
---------------------------------| 
--6-----5---5-----4---4-----3~---| 
----5---------4---------3--------| 
------4---------3---------2------| 
---------------------------------| 
 

Riff 

  MI5 
 
|-------------------------------|    -----------------------------| 
|-------------------------------|    -----------------------------| 
|-------------------------------|    -----------------------------| 
|-------------------------------|x3  -----------------------------| 
|--2-------------3h4------------|    |--2-----------7-7----5-5---- 
|--0--------------------2h3-----|    --0-----------5-5----3-3---- 


PrE coro 

DO                LAm                       MI5           RE5 DO#/5 
y en tus ojos hoy se que ya no estoy, puedo verte en la oscuridad. 
 
|0---------------|0--------------------    |-------------|---------| 
|1---------------|1--------------------    |-------------|---------| 
|0---------------|2--------------------    |9------------|77--6----| 
|2---------------|2--------------------    |9------------|77--7----| 
|3---------------|0--------------------    |7------------|55--4----| 
|----------------|---------------------    |-------------|---------| 
 

cambio el viento y yo sigo siendo igual, solo niebla queda en tu lugar. 

(Coro) 
DO5      DO#/5            RE5      RF/5 
y cuando te des vuelta yo voy a seguir estando aca! 
 
|---------------------|----------------------------------------| 
|---------------------|----------------------------------------| 
|5555-------6666------------|7777--------8888------------------| 
|5555-------7777------------|7777--------9999------------------| 
|3333-------4444------------|5777--------6666------------------| 
|---------------------|----------------------------------------| 
 

__________p.m__________ 
 
-------------------------------| 
-------------------------------| 
------------------------------- 
--------------------------5----| 
--------------------------5----| 
--0---0-0---0---0---0-0---3----| 
 

(Coro) 
DO5      DO#/5            RE5      RF/5 
y cuando te des vuelta yo voy a seguir estando aca! 
 
|---------------------|----------------------------------------| 
|---------------------|----------------------------------------| 
|5555-------6666------------|7777--------8888------------------| 
|5555-------7777------------|7777--------9999------------------| 
|3333-------4444------------|5777--------6666------------------| 
|---------------------|----------------------------------------| 
 


__________p.m__________ 
 
-------------------------------| --------------------------------| 
-------------------------------| --------------------------------| 
-------------------------------| --6-----5---5-----4---4-----3---| 
--------------------------5----| ----5---------4---------3-------| 
--------------------------5----| ------4---------3---------2-----| 
--0---0-0---0---0---0-0---3----| --------------------------------| 
 

SOLO 
 PM   PM PM   PM   PM   PM PM 
 
--------------------------------------| 
--------------------------------------| 
--------------------------------------| 
--------------------------------------| 
--0----0--0----0----0----0--0---------| 
--------------------------------------| 
 

PM   PM PM   PM   PM   PM PM 
 
--------------------------------------| 
--------------------------------------| 
--------------------------------------| 
--------------------------------------| 
--0----0--0----0----0----0--0---------| 
--------------------------------------| 
 

PM   PM PM   PM   PM   PM PM      ARmonico 
 
--------------------------------------| 
--------------------------------------| 
-----------------------------------12---| 
--------------------------------------| 
--0----0--0----0----0----0--0---------| 
--------------------------------------| 
 

 
----------------------------------------------| 
--17-17-17-17---17---17---17-17-17-17-17-17---| 
----------------------------------------------| 
--14-14-14-14---14---14---14-14-14-14-14-14---| 
----------------------------------------------| 
---------------------------------------------- 
 

 
------------------15---------------------------| 
--17-17-17-17-------------17-17-17-17-17-17/---| 
-----------------------------------------------| 
--14-14-14-14-------------14-14-14-14-14-14/---| 
-----------------------------------------------| 
----------------------------------------------- 
 

 
     |----3----|     |-----3-----| 
 

 
--0----0----0-----0-----0-----0----| 
--0----0----0-----0-----0-----0----| 
--9----9----9----12----12----12----| 
--9----9----9----12----12----12----| 
--7----7----7----10----10----10----|                                                                     -----------------------------------| 
 


   |-----3-----|     |-----3-----|   
     |----3----|     |-----3-----| 
 

 
---0-----0-----0-----0-----0-----0----|--0----0----0-----0-----0-----0----| 
---0-----0-----0-----0-----0-----0----|--0----0----0-----0-----0-----0----| 
--11----11----11----10----10----10----|--9----9----9----12----12----12----| 
--11----11----11----10----10----10----|--9----9----9----12----12----12----| 
---9-----9-----9-----8-----8-----8----|--7----7----7----10----10----10----| 
--------------------------------------|-----------------------------------| 
 


 
   |-----3-----|     |-----3-----| 
 

 
---0-----0-----0-----0-----0-----0----| 
---0-----0-----0-----0-----0-----0----| 
--11----11----11----10----10----10----| 
--11----11----11----10----10----10----| 
---9-----9-----9-----8-----8-----8----| 
-------------------------------------- 
 

(Coro) 
DO5      DO#/5            RE5      RF/5 
y cuando te des vuelta yo voy a seguir estando aca! 
 
|---------------------|----------------------------| 
|---------------------|----------------------------| 
|5-------6------------|7--------8------------------| 
|5-------7------------|7--------9------------------| 
|3-------4------------|5--------6------------------| 
|---------------------|----------------------------| 
 

riff 
 
|-------------------------------| 
|-------------------------------| 
|-------------------------------| 
|-------------------------------|x2 
|--2-------------3h4------------| 
|--0--------------------2h3-----| 
 

(Coro) 
DO5      DO#/5            RE5      RF/5 
y cuando te des vuelta yo voy a seguir estando aca! 
 
|---------------------|----------------------------| 
|---------------------|----------------------------| 
|5-------6------------|7--------8------------------| 
|5-------7------------|7--------9------------------| 
|3-------4------------|5--------6------------------| 
|---------------------|----------------------------| 
 



 
|--------------------- |-----------------------| 
|--------------------- |-----------------------| 
|-----12~------11~---- |---10~------------9~---| 
|--------------------- |-----------------------| 
|/10--------/9-------- |/8-------------/7------| 
|--------------------- |----------------------- 
 

(Coro) 
DO5      DO#/5            RE5      RF/5 
y cuando te des vuelta yo voy a seguir estando aca! 
 
|---------------------|----------------------------| 
|---------------------|----------------------------| 
|5-------6------------|7--------8------------------| 
|5-------7------------|7--------9------------------| 
|3-------4------------|5--------6------------------| 
|---------------------|----------------------------| 
 

Riff 

  MI5 
 
|-------------------------------|    -----------------------------| 
|-------------------------------|    -----------------------------| 
|-------------------------------|    -----------------------------| 
|-------------------------------|x3  -----------------------------| 
|--2-------------3h4------------|    |--2-----------7-7----5-5---- 
|--0--------------------2h3-----|    --0-----------5-5----3-3---- 
    	
fixar
fixar inscrever-se

enviado porenviado por: IronPower4Ever
cifra enviadaCorrigida por: sem correções
logo top cifrasComente
ico música do artistaMúsicas deste artista
ico curtiuCurtiu?
ico destaqueDestaque
Petaxxon Comunicação Online

Cifras.com.br - Melhor e mais completo site de cifras e tablaturas do Brasil Mais de 1 milhão de acordes de músicas cadastradas desde 2003
As informações contidas no nosso site são colaborações de seus usuários e podem conter erros, sendo assim, não nos responsabilizamos sobre nenhuma destas.

close
menos
mais
close
Cor dos acordes:

Cor da letra:

close
Alinhar acordes a direita Alinhar acordes a esquerda Alinhar acordes em baixo Alinhar acordes no topo
close
  Mostrar todos os acordes Esconder acordes muito fáceis Esconder acordes fáceis Esconder acordes intermediários
redimensionar
glossário