Cifras e Tablaturas
Eskimo Callboy

Eskimo Callboy

California Gurls

Cifras Cancelar Versão de Impressão Print

Eskimo Callboy - California Gurls

Tom:

  			Tuning: C G C F A D  

D|-12-------14---14-------16---17---17---17-----12-------14---14-------16---17---17---17--| 
A|----------------------------------------------------------------------------------------| 
F|----------------------------------------------------------------------------------------| 
C|----------------------------------------------------------------------------------------| 
G|----------------------------------------------------------------------------------------| 
C|----------------------------------------------------------------------------------------| 

D|----------------------------------------------------------------------------------------| 
A|----------------------------------------------------------------------------------------| 
F|----------------------------------------------------------------------------------------| 
C|----------------------------------------------------------------------------------------| 
G|-12--\--0---0--0--0---0------2--2--2--4----4---4--4----0---0--0--0---0------2--2--2--4--| 
C|-12--\--0---0--0--0---0------2--2--2--4----4---4--4----0---0--0--0---0------2--2--2--4--| 

D|----------------------------------------------------------------------------------------| 
A|----------------------------------------------------------------------------------------| 
F|----------------------------------------------------------------------------------------| 
C|----------------------------------------------------------------------------------------| 
G|--4---4--4----0---0--0--0---0------2--2--2--4----4---4--4----0---0--0--0---0------2--2--| 
C|--4---4--4----0---0--0--0---0------2--2--2--4----4---4--4----0---0--0--0---0------2--2--| 

D|----------------------------------------------------------------------------------------| 
A|----------------------------------------------------------------------------------------| 
F|----------------------------------------------------------------------------------------| 
C|----------------------------------------------------------------------------------------| 
G|-2--4----4---4--4---0---0-----0--0--0---0---0-----------2--2--2--4----4---4--4---0---0--| 
C|-2--4----4---4--4---0---0-----0--0--0---0---0-----------2--2--2--4----4---4--4---0---0--| 
                                              
D|----------------------------------------------------------------------------------------| 
A|----------------------------------------------------------------------------------------| 
F|----------------------------------------------------------------------------------------| 
C|----------------------------------------------------------------------------------------| 
G|---0--0--0---0---0-----------2--2--2--4----4---4--4---0---0--0--0---0------2--2--2--4---| 
C|---0--0--0---0---0-----------2--2--2--4----4---4--4---0---0--0--0---0------2--2--2--4---| 
                    
D|------------------------------------------------------------17--16--12--17--16--12--17--| 
A|----------------------------------------------------------------------------------------| 
F|----------------------------------------------------------------------------------------| 
C|----------------------------------------------------------------------------------------| 
G|-4---4--4----0---0--0--0---0------2--2--2--4----4---4--4--------------------------------| 
C|-4---4--4----0---0--0--0---0------2--2--2--4----4---4--4--------------------------------| 

D|-16--17--16--12--17--16--12--17--16--17--16--12--17--16--12--17--16--17--16--12--17--16-| 
A|----------------------------------------------------------------------------------------| 
F|----------------------------------------------------------------------------------------| 
C|----------------------------------------------------------------------------------------| 
G|----------------------------------------------------------------------------------------| 
C|----------------------------------------------------------------------------------------| 

D|-12--17--16--17--16--12--17--16--12--17--16--17--16--12--17--16--12--17--16--17--16--12-| 
A|----------------------------------------------------------------------------------------| 
F|----------------------------------------------------------------------------------------| 
C|----------------------------------------------------------------------------------------| 
G|----------------------------------------------------------------------------------------| 
C|----------------------------------------------------------------------------------------| 

D|-17--16--12--17--16--17--16--12--17--16--12--19--17--------14--14-----------------14--14| 
A|----------------------------------------------------------------------------------------| 
F|--------------------------------------------------------7----------9-----11----7--------| 
C|----------------------------------------------------------------------------------------| 
G|--------------------------------------------------------5----------7-----9-----5--------| 
C|----------------------------------------------------------------------------------------| 

D|-----------------14--14-----------------14--14------------------------------------------| 
A|----------------------------------------------------------------------------------------| 
F|--9-----11----7----------9-----11----7----------9-----11--------------------------------| 
C|----------------------------------------------------------------------------------------| 
G|--7-----9-----5----------7-----9-----5----------7-----9---0----0----0---0--0--0---0--0--| 
C|----------------------------------------------------------1----1----1---1--1--1---1--1--| 

D|-------------------15--14--13----13--12--11----15---14---13--14--13--12--11---10---9--10| 
A|----------------------------------------------------------------------------------------| 
F|----------------------------------------------------------------------------------------| 
C|----------------------------------------------------------------------------------------| 
G|-0---0----0----0------------------------------------------------------------------------| 
C|-1---1----1----1------------------------------------------------------------------------| 

D|----------------------------------------------------------------------------------------| 
A|-----------------------------------------------------------2---2------------------------| 
F|-----------------------------------------------------------5---5------------------------| 
C|----------------------------------------------------------------------------------------| 
G|-0----0----0---0--0--0---0--0--0---0----0----0---0--0--0-----------0----0----0---0--0--0| 
C|-1----1----1---1--1--1---1--1--1---1----1----1---1--1--1-----------1----1----1---1--1--1| 

D|----------------------------------------------------------------------------------------| 
A|---------------------------2---2--------------------------------------------------------| 
F|---------------------------5---5--------------------------------------------------------| 
C|----------------------------------------------------------------------------------------| 
G|---0----0----0---0--0--0-----------0------0------0----0--0--0----0--0--0---0------0-----| 
C|---1----1----1---1--1--1-----------0------0------0----0--0--0----0--0--0---0------0-----| 

D|----------------------------------------------------------------------------------------| 
A|----------------2---2-------------------------------------------------------------------| 
F|----------------5---5-------------------------------------------------------------------| 
C|----------------------------------------------------------------------------------------| 
G|-0----0--0--0-----------0------0------0----0--0--0----0--0--0---0------0------0----0--0-| 
C|-0----0--0--0-----------0------0------0----0--0--0----0--0--0---0------0------0----0--0-| 

D|-------------12-------14---14-------16---17---17---17-----12-------14---14-------16---17| 
A|-----2---2------------------------------------------------------------------------------| 
F|-----5---5------------------------------------------------------------------------------| 
C|----------------------------------------------------------------------------------------| 
G|-0--------------------------------------------------------------------------------------| 
C|-0--------------------------------------------------------------------------------------| 

D|---17---17-----12-------14---14-------16---17---17---17-----12-------14---14-------16---| 
A|----------------------------------------------------------------------------------------| 
F|----------------------------------------------------------------------------------------| 
C|----------------------------------------------------------------------------------------| 
G|----------------------------------------------------------------------------------------| 
C|----------------------------------------------------------------------------------------| 

D|-17---17---17-----17--16--12--17--16--12--17--16--17--16--12--17--16--12--17--16--17--16| 
A|----------------------------------------------------------------------------------------| 
F|----------------------------------------------------------------------------------------| 
C|----------------------------------------------------------------------------------------| 
G|----------------------------------------------------------------------------------------| 
C|----------------------------------------------------------------------------------------| 

D|--12--17--16--12--17--16--17--16--12--17--16--12--17--16--17--16--12--17--16--12--17--16| 
A|----------------------------------------------------------------------------------------| 
F|----------------------------------------------------------------------------------------| 
C|----------------------------------------------------------------------------------------| 
G|----------------------------------------------------------------------------------------| 
C|----------------------------------------------------------------------------------------| 

D|--17--16--12--17--16--12--17--16--17--16--12--17--16--12--17--16--17--16--12--17--16--12| 
A|----------------------------------------------------------------------------------------| 
F|----------------------------------------------------------------------------------------| 
C|----------------------------------------------------------------------------------------| 
G|----------------------------------------------------------------------------------------| 
C|----------------------------------------------------------------------------------------| 

D|--19--17------14--14-----------------14--14-----------------14--14-----------------14---| 
A|----------------------------------------------------------------------------------------| 
F|-----------7----------9-----11----7----------9-----11----7----------9-----11----7-------| 
C|----------------------------------------------------------------------------------------| 
G|-----------5----------7-----9-----5----------7-----9-----5----------7-----9-----5-------| 
C|----------------------------------------------------------------------------------------| 

D|-14-------------------------------------------------------------------------------------| 
A|----------------------------------------------------------------------------------------| 
F|-----9-----11---------------------------------------------------------------------------| 
C|----------------------------------------------------------------------------------------| 
G|-----7-----9--------0---0--0--0---0-----0------2--2--2--4----4---4--4------0---0--0--0--| 
C|--------------------0---0--0--0---0-----0------2--2--2--4----4---4--4------0---0--0--0--| 

D|----------------------------------------------------------------------------------------| 
A|----------------------------------------------------------------------------------------| 
F|----------------------------------------------------------------------------------------| 
C|----------------------------------------------------------------------------------------| 
G|-0-----0------2--2--2--4----4---4--4------0---0--0--0---0-----0------2--2--2--4----4---4| 
C|-0-----0------2--2--2--4----4---4--4------0---0--0--0---0-----0------2--2--2--4----4---4| 

D|----------------------------------------------------------------------------------------| 
A|----------------------------------------------------------------------------------------| 
F|--------------------------------------------------------------7---7---7---7---7---7---7-| 
C|----------------------------------------------------------------------------------------| 
G|--4------0---0--0--0---0-----0------2--2--2--4----4---4--4----5---5---5---5---5---5---5-| 
C|--4------0---0--0--0---0-----0------2--2--2--4----4---4--4------------------------------| 

D|----------------------------------------------------------------------------------------| 
A|----------------------------------------------------------------------------------------| 
F|--7---9---9---9---9---11--11--11--11--7---7---7---7---7---7---7---7---9---9---9---9---11| 
C|----------------------------------------------------------------------------------------| 
G|--5---7---7---7---7---9---9---9---9---5---5---5---5---5---5---5---5---7---7---7---7---9-| 
C|----------------------------------------------------------------------------------------| 

D|----------------------------------------------------------------------------------------| 
A|----------------------------------------------------------------------------------------| 
F|--11--11--11--7---7---7---7---7---7---7---7---9---9---9---9---11--11--11--11--7---7---7-| 
C|----------------------------------------------------------------------------------------| 
G|--9---9---9---5---5---5---5---5---5---5---5---7---7---7---7---9---9---9---9---5---5---5-| 
C|----------------------------------------------------------------------------------------| 

D|----------------------------------------------------------------------------------------| 
A|----------------------------------------------------------------------------------------| 
F|--7---7---7---7---7---9---9---9---9---11--11--11--11------------------------------------| 
C|----------------------------------------------------------------------------------------| 
G|--5---5---5---5---5---7---7---7---7---9---9---9---9------0---0--0--0---0--------0-------| 
C|---------------------------------------------------------0---0--0--0---0--------0-------| 

D|----------------------------------------------------------------------------------------| 
A|------4--4--4--4--4--4------------------------------------------------------------------| 
F|------7--7--7--7--7--7------------------------------------------------------------------| 
C|----------------------------------------------------------------------------------------| 
G|--0---------------------1---0---4---3-----0---0--0--0---0-----0-----0-----0--0--0-----0-| 
C|--0---------------------1---0---4---3-----1---1--1--1---1-----1-----1-----1--1--1-----1-| 

D|----------------------------------------------------------------------------------------| 
A|----------------------------------------------------------------------------------------| 
F|----------------------------------------------------------------------------------------| 
C|----------------------------------------------------------------------------------------| 
G|-0--0---------------0--0--0----0--------3--------1-------------------0---0--0--0---0----| 
C|-1--1---------------1--1--1----1--1--1-----1--1-----1--1--4--3--1----0---0--0--0---0----| 

D|----------------------------------------------------------------------------------------| 
A|-------------------------------------------------------------------4--4--4--4--4--4-----| 
F|-------------------------------------------------------------------7--7--7--7--7--7-----| 
C|----------------------------------------------------------------------------------------| 
G|----0---------0----------------------0------0------0----0------0---------------------1--| 
C|----0---------0----------------------0------0------0----0------0---------------------1--| 

D|----------------------------------------------------------------------------------------| 
A|----------------------------------------------------------------------------------------| 
F|----------------------------------------------------------------------------------------| 
C|----------------------------------------------------------------------------------------| 
G|-0---4---3------0---0--0--0---0-----0-----0-----0--0--0-----0--0--0-------------0--0--0-| 
C|-0---4---3------1---1--1--1---1-----1-----1-----1--1--1-----1--1--1-------------1--1--1-| 

D|----------------------------------------------------------------------------------------| 
A|----------------------------------------------------------------------------------------| 
F|----------------------------------------------------------------------------------------| 
C|----------------------------------------------------------------------------------------| 
G|-0--------3--------1--------------------------------------------------------------------| 
C|-1--1--1-----1--1-----1--1--4--3--1-----------------------------------------------------|  
    	
fixar
fixar inscrever-se

enviado porenviado por: terr_schmitz
cifra enviadaCorrigida por: sem correções
logo top cifrasComente
ico música do artistaMúsicas deste artista
ico curtiuCurtiu?
ico destaqueDestaque
Petaxxon Comunicação Online

Cifras.com.br - Melhor e mais completo site de cifras e tablaturas do Brasil Mais de 1 milhão de acordes de músicas cadastradas desde 2003
As informações contidas no nosso site são colaborações de seus usuários e podem conter erros, sendo assim, não nos responsabilizamos sobre nenhuma destas.

close
menos
mais
close
Cor dos acordes:

Cor da letra:

close
Alinhar acordes a direita Alinhar acordes a esquerda Alinhar acordes em baixo Alinhar acordes no topo
close
  Mostrar todos os acordes Esconder acordes muito fáceis Esconder acordes fáceis Esconder acordes intermediários
redimensionar
glossário