Cifras e Tablaturas
Etsuko Yakushimaru

Etsuko Yakushimaru

Venus And Jesus

Cifras Cancelar Versão de Impressão Print

Etsuko Yakushimaru - Venus And Jesus

Tom:

  • 0:00 / 0:00
  			This is the version from 'Radio Onsen Eutopia'. 

e|---------------| 
b|---3--3---2--2-| 
G|---2--2---1--1-| 
D|---3--3---2--2-| 
A|-x------x------| 
E|-x------x------| 

    e|-------------------------------------| 
    b|-3-------------------2-----3---------| 
GTR G|-2-------------------2-----2---------| 
 1  D|-4-------------------4-----4---------|  
    A|---------------------0---------------| 
    E|-------------------------------------| 

    e|----10-------10--10----12-----14--14-| 
    b|----10-------10--10----10-----12--12-| 
GTR G|-----------------11------------------| 
 2  D|-------------------------------------| 
    A|-------------------------------------| 
    E|-------------------------------------| 

    e|-------0-------0------------0-----2--| 
    b|-----3-----------3--------2----3-----| 
GTR G|---2---------------2----2------2-----| 
 1  D|-4--------------------4--------4-----|  
    A|-------------------------------------| 
    E|-------------------------------------| 

    e|----10-------10--10----12-----14--14-| 
    b|----10-------10--10----10-----12--12-| 
GTR G|-----------------11------------------| 
 2  D|-------------------------------------| 
    A|-------------------------------------| 
    E|-------------------------------------| 

e|-5---3---2---3------5-9--5-----------9------| 
b|-5---3---3---3----5--------5-----5-----5----| 
G|-6---4---4---4--6------------6-7---7-----7--| 
D|--------------------------------------------| 
A|--------------------------------------------| 
E|--------------------------------------------| 


e|-5---3---2---3----7-7-7-7-7-7-7-7-9----9---9--| 
b|-5---3---3---3----7-7-7-7-7-7-7-7-7----10--10-| 
G|-6---4---4---4----8-8-8-8-8-8-8-8-8----11--11-| 
D|----------------------------------------------| 
A|----------------------------------------------| 
E|----------------------------------------------| 

e|-5-x-5-5-5-5-9-9-9-9-9-9-9-9--7-x-7-7-7-7-9-9-9-9-9-9-9-9--| 
b|-5-x-5-5-5-5-1010101010101010-7-x-7-7-7-7-1010101010101010-| 
G|-6-x-6-6-6-6-1111111111111111-8-x-8-8-8-8-1111111111111111-| 
D|-----------------------------------------------------------| 
A|-----------------------------------------------------------| 
E|-----------------------------------------------------------| 

e|-5-x-5-5-5-5-9-9-9-9-9-9-9-9--7-x-7-7-7-7-5--5--4-5-| 
b|-5-x-5-5-5-5-1010101010101010-7-x-7-7-7-7-5--5--5-5-| 
G|-6-x-6-6-6-6-1111111111111111-8-x-8-8-8-8-6--6--6-6-| 
D|----------------------------------------------------| 
A|----------------------------------------------------| 
E|----------------------------------------------------| 

    e|-----------------------------------------------------------| 
    b|-----------------------------------------------------------| 
GTR G|-----------------------------------------------------------| 
 1  D|-----------------------------------------------------------|  
    A|-5--2--0-2-0-2-5--2--0-2-0-2--9--5--0-2-0-2--5-2-0-2-0-0-2-| 
    E|-----------------------------------------------------------| 
             PMP M         PMP M          PMP M            P M 

    e|-----------------------------------------------------------| 
    b|-----------------------------------------------------------| 
GTR G|-----------------------------------------------------------| 
 2  D|-------------- random wah guitar --------------------------| 
    A|-----------------------------------------------------------| 
    E|-----------------------------------------------------------| 

    e|------------------------------------5-9--5-----------9-----| 
    b|-2--------2----2---2----2---------5--------5-----5-----5---| 
GTR G|-3--------2----3---2----3-------6------------6-7---7-----7-| 
 1  D|-4--------4----4---4----4----------------------------------|  
    A|-----------------------------------------------------------| 
    E|-----------------------------------------------------------| 

    e|-----------------------------------------------------------| 
    b|-----------------------------------------------------------| 
GTR G|-------4-7-------------------------------------------------| 
 2  D|---4-7-----2-4--------\2-0------4--6--7-(hold)-------------| 
    A|-----------------------------------------------------------| 
    E|-----------------------------------------------------------| 

    e|-------0-------0------------0-----2--| 
    b|-----3-----------3--------2----3-----| 
GTR G|---2---------------2----2------2-----| 
 1  D|-4--------------------4--------4-----|  
    A|-------------------------------------| 
    E|-------------------------------------| 

    e|-------0-------0------------0-----2--| 
    b|-----3-----------3--------2----3-----| 
GTR G|---2---------------2----2------2-----| 
 1  D|-4--------------------4--------4-----|  
    A|-------------------------------------| 
    E|-------------------------------------| 

    e|----10-------10--10----12-----14--14-| 
    b|----10-------10--10----10-----12--12-| 
GTR G|-----------------11------------------| 
 2  D|-------------------------------------| 
    A|-------------------------------------| 
    E|-------------------------------------| 

e|-5---3---2---3------5-9--5-----------9------| 
b|-5---3---3---3----5--------5-----5-----5----| 
G|-6---4---4---4--6------------6-7---7-----7--| 
D|--------------------------------------------| 
A|--------------------------------------------| 
E|--------------------------------------------| 


e|-5---3---2---3----7-7-7-7-7-7-7-7-9----9---9--| 
b|-5---3---3---3----7-7-7-7-7-7-7-7-7----10--10-| 
G|-6---4---4---4----8-8-8-8-8-8-8-8-8----11--11-| 
D|----------------------------------------------| 
A|----------------------------------------------| 
E|----------------------------------------------| 

e|-5-x-5-5-5-5-9-9-9-9-9-9-9-9--7-x-7-7-7-7-9-9-9-9-9-9-9-9--| 
b|-5-x-5-5-5-5-1010101010101010-7-x-7-7-7-7-1010101010101010-| 
G|-6-x-6-6-6-6-1111111111111111-8-x-8-8-8-8-1111111111111111-| 
D|-----------------------------------------------------------| 
A|-----------------------------------------------------------| 
E|-----------------------------------------------------------| 

e|-5-x-5-5-5-5-9-9-9-9-9-9-9-9--7-x-7-7-7-7-5--5--4-5-| 
b|-5-x-5-5-5-5-1010101010101010-7-x-7-7-7-7-5--5--5-5-| 
G|-6-x-6-6-6-6-1111111111111111-8-x-8-8-8-8-6--6--6-6-| 
D|----------------------------------------------------| 
A|----------------------------------------------------| 
E|----------------------------------------------------| 

e|----------|----|--------12-|----|-12-| 
b|-13-12----|-13-|-----------|----|----| 
G|-------12-|----|--14-14----|-14-|----| 
D|----------|----|-----------|----|----| 
A|----------|----|-----------|----|----| 
E|-- x10 ---|----|--- x5 ----|----|-x15| 

e|----------|----------|----------|-------------------|----|----------| 
b|-13-12----|-15-12----|-13-12----|-15-12----13-12----|-13-|-12-13----| 
G|-------12-|-------12-|-------12-|-------12-------12-|----|-------15-| 
D|----------|----------|----------|-------------------|----|----------| 
A|----------|----------|----------|-------------------|----|----------| 
E|-- x3 ----|----------|--- x2 ---|------- x2 --------|----|--- x5 ---| 

e|---------------| 
b|---3--3---2--2-| 
G|---2--2---1--1-| 
D|---3--3---2--2-| 
A|-x------x------| 
E|-x------x------| 

e|-5---3---2---3------5-9--5-----------9------| 
b|-5---3---3---3----5--------5-----5-----5----| 
G|-6---4---4---4--6------------6-7---7-----7--| 
D|--------------------------------------------| 
A|--------------------------------------------| 
E|--------------------------------------------| 


e|-5---3---2---3--7-----7-----7---9----9-------9-------9------2--2-| 
b|-5---3---3---3----8-----8-----8-7------11------11------11---1--1-| 
G|-6---4---4---4------9-----9-----8---------12------12--------2--2-| 
D|-----------------------------------------------------------------| 
A|----------------------------------------------------------x------| 
E|----------------------------------------------------------x------| 


e|-5-x-5-5-5-5-9-9-9-9-9-9-9-9--7-x-7-7-7-7-9-9-9-9-9-9-9-9--| 
b|-5-x-5-5-5-5-1010101010101010-7-x-7-7-7-7-1010101010101010-| 
G|-6-x-6-6-6-6-1111111111111111-8-x-8-8-8-8-1111111111111111-| 
D|-----------------------------------------------------------| 1,3 
A|-----------------------------------------------------------| 
E|-----------------------------------------------------------| 

e|-5-x-5-5-5-5-9-9-9-9-9-9-9-9--7-x-7-7-7-7-5--5--4-5-| 
b|-5-x-5-5-5-5-1010101010101010-7-x-7-7-7-7-5--5--5-5-| 
G|-6-x-6-6-6-6-1111111111111111-8-x-8-8-8-8-6--6--6-6-| 
D|----------------------------------------------------| 2,4 
A|----------------------------------------------------| 
E|----------------------------------------------------| 

    e|-----------------------------------------------------------| 
    b|-----------------------------------------------------------| 
GTR G|-----------------------------------------------------------| 
 1  D|-----------------------------------------------------------|  
    A|-5--2--0-2-0-2-5--2--0-2-0-2--9--5--0-2-0-2--5-2-0-2-0-0-2-| 
    E|-----------------------------------------------------------| 
             PMP M         PMP M          PMP M            P M 

    e|-----------------------------------------------------------| 
    b|-----------------------------------------------------------| 
GTR G|-----------------------------------------------------------| 
 2  D|-------------- random wah guitar --------------------------| 
    A|-----------------------------------------------------------| 
    E|-----------------------------------------------------------| 

e|-----2----------0-------0-------------2----| 
b|-2------2----2-----2--3---3---2---3--------| 
G|-3------2----3-----3--------2-2-----4------| 
D|-4------4----4-----4----------4------------| 
A|-------------------------------------------| 
E|-------------------------------------------| 
    	

enviado porenviado por: adalgomes
cifra enviadaCorrigida por: sem correções
logo top cifrasComente
ico música do artistaMúsicas deste artista
ico curtiuCurtiu?
ico destaqueDestaque
Petaxxon Comunicação Online

Cifras.com.br - Melhor e mais completo site de cifras e tablaturas do Brasil Mais de 1 milhão de acordes de músicas cadastradas desde 2003
As informações contidas no nosso site são colaborações de seus usuários e podem conter erros, sendo assim, não nos responsabilizamos sobre nenhuma destas.

close
menos
mais
close
Cor dos acordes:

Cor da letra:

close
Alinhar acordes a direita Alinhar acordes a esquerda Alinhar acordes em baixo Alinhar acordes no topo
close
  Mostrar todos os acordes Esconder acordes muito fáceis Esconder acordes fáceis Esconder acordes intermediários
redimensionar
glossário