Cifras e Tablaturas
Eunsung Kim

Eunsung Kim

The Sea

Cifras Cancelar Versão de Impressão
cifras

Eunsung Kim - The Sea

fixar na tela  
Exibindo: vídeo-aula ver clipes redimensionar

Tom:

A

ver outros tons
   
 A1 
   E E E E E E   E E E E E E   E E E E E E   E E E E E E 
e|-------------|-------------|-----0---0---|-----0---0-----| 
B|-----0---0---|-----0---0---|-----0---0---|-----0---0-----| 
G|-----0---0---|-----0---0---|---0---0---0-|---0---0---0---| 
D|---4---4---4-|---4---4---4-|-------------|---------------| 
A|-------------|-------------|-3-----------|-3-------------| 
E|-3-----------|-3-----------|-------------|---------------| 

                                                ^ 
   E E E E E E   E E E E E E   E E E E E E      H.           +Q    +Q.      S S 
e|-------------|-------------|-----0---0---|--<12>---------|-(12)--(12)---------| 
B|-----0---0---|-----0---0---|-----0---0---|--<12>---------|-(12)--(12)-------0-| 
G|-----0---0---|-----0---0---|---0---0---0-|--<12>---------|-(12)--(12)-----0---| 
D|---4---4---4-|---4---4---4-|-------------|---------------|--------------------| 
A|-------------|-------------|-3-----------|---------------|--------------------| 
E|-3-----------|-3-----------|-------------|---------------|--------------------| 

 B1                          ^              ^ 
   E E E E E E   E E E E  Q    E E E E E E    E E E E E E 
e|-5---5---7---|-2-----------|-2---2---5---|--3---2---0----| 
B|-----0-------|-----3----3--|-0---0-----0-|--0---0-----0--| 
G|---0---0---0-|-----4----4--|-0-0---0-----|----0---0------| 
D|-------------|---4---4-----|-------------|---------------| 
A|-------------|-------------|-3-----------|--3------------| 
E|-3-----------|-3-----------|-------------|---------------| 

                                                ^ 
   E E E E E E   E E E E E E   E E E E E E      H.            +Q    +Q.     S S 
e|-------------|-------------|---------0---|--<12>---------|-(12)--(12)---------| 
B|-----3---3---|-----0---0---|-----0-------|--<12>---------|-(12)--(12)-------0-| 
G|-----4---4---|-----0---0---|-----0-----0-|--<12>---------|-(12)--(12)-----0---| 
D|---4---4---4-|---4---4---4-|---5---5-----|---------------|--------------------| 
A|-------------|-------------|-3-----------|---------------|--------------------| 
E|-3-----------|-3-----------|-------------|---------------|--------------------| 

                                              ^ 
   E E E E E E   E E E E  Q    E E E E E E    E E E E E E 
e|-5---5---7---|-2-----------|-2---2---5---|--3---2---0----| 
B|-----0-------|-----3----3--|-----0-----0-|--0---0-----0--| 
G|---0---0---0-|-----4-------|---0---0-----|----0---0------| 
D|-------------|---4---4-----|-------------|---------------| 
A|-------------|-------------|-3-----------|--3------------| 
E|-3-----------|-3-----------|-------------|---------------| 

                                                ^ 
   E E E E E E   E E E E E E   E E E E E E      H.            +Q    +Q.     S S 
e|-------------|-------------|---------0---|--<12>---------|-(12)--(12)---------| 
B|-----3---3---|-----0---0---|-----0-------|--<12>---------|-(12)--(12)---------| 
G|-----0---0---|-----0---0---|-----0-----0-|--<12>---------|-(12)--(12)---------| 
D|---4---4---4-|---4---4---4-|---5---5-----|---------------|------------------2-| 
A|-------------|-------------|-3-----------|---------------|----------------0---| 
E|-3-----------|-3-----------|-------------|---------------|--------------------| 

 C1                                  ^ 
   E E E E E E   E E E E E E   E E E E E E   E E E E E E 
e|-------------|---------2/5-|-5-----3-3-5-|-0-------------| 
B|---------0-1-|-0-----------|-3---3-3-3---|-------2-------| 
G|-2-----2-----|-----2-------|-4---4---4---|-----0---0-----| 
D|-----2-------|---1---1-----|---5---------|---2-------2---| 
A|---0---------|-2-----------|-------------|-0-------------| 
E|-2-----------|-------------|-0-----------|---------------| 

   ^ 
   E E E E E E   E E E S. T a E E   E E E E E E   E E E E E E 
e|-----------3/|-7-----5----------|-----------0--|--------------| 
B|-1-----0-1---|-----5------5h7-5-|-3-------3----|-3-----0------| 
G|-0---0-------|-5-5------5-------|-----0---0----|-----0---0----| 
D|-2-2---------|-0----------------|---0---0------|---0-------0--| 
A|-0-----------|------------------|--------------|--------------| 
E|-------------|------------------|-3------------|-1------------| 

 D1                            ^               ^ 
   E E E E E E    E E E E   Q    E E E E E  E    E E E E E  E 
e|-0---0---3----|-7------------|-----------10-|--7-------7-10---| 
B|-----0--------|-----8-----8--|-3-----2-3----|--6--------------| 
G|---0---0---0--|-----9-----9--|-2---2--------|--7---7----------| 
D|--------------|---9---9------|-4-4----------|--6-6---6--------| 
A|-3------------|--------------|-2------------|-----------------| 
E|--------------|-8------------|--------------|--0--------------| 

    ^              ^              ^              ^ 
    E E E E E E    E E E E E E    E E E E E E    E E E E   Q  
e|-10---8---7---|--5-------7---|--5-------5-3-|--3--------------| 
B|--8---------8-|--5---5-----5-|--4---4-------|--3---------3----| 
G|--7-7---7-----|--5-5---5-----|--5-5---5-----|--0---0----------| 
D|--------------|--0-----------|--0-----------|----0---0--------| 
A|--0-----------|--------------|--------------|-----------------| 
E|--------------|--------------|--------------|--3--------------| 

 E1                                             ^ 
    E E E E E E   E E E E E E    E E E E E E      E E E E  E  E 
e|----------0-3-|-2---------0--|-0------------|--10----------10-| 
B|--0-----0-----|---2-----2----|-------3-2-3--|---9---9---------| 
G|------0-------|-----3--------|-----2--------|-----------10----| 
D|----2---------|-------2------|---4----------|-----9---9-------| 
A|--4-----------|--------------|-2------------|-----------------| 
E|--------------|-2------------|--------------|---0-------------| 

    ^    ^                         ^  
    E E  E E E  E    E E E E Q     E E E E E E   a E E E E   Q 
e|-10-8--8-6-6----|-------------|------------5-|----------------| 
B|--8-8--8-----10-|-10-8-8-6----|--8-------7---|-6h7---------7--| 
G|--7----7------7-|--7-7-7---7--|--5---5-------|---5---5--------| 
D|----------------|-------------|----7---7-----|-----7---7------| 
A|--6-------------|-------------|--5-----------|---5------------| 
E|----------------|-------------|--------------|----------------| 

 A2 
   E E E E E E   E E E E E E   E E E E E E   E E E E E E 
e|-------------|-------------|-----0---0---|-----0---0-----| 
B|-----0---0---|-----0---0---|-----0---0---|-----0---0-----| 
G|-----0---0---|-----0---0---|---0---0---0-|---0---0---0---| 
D|---4---4---4-|---4---4---4-|-------------|---------------| 
A|-------------|-------------|-3-----------|-3-------------|  
E|-3-----------|-3-----------|-------------|---------------| 

                                                ^ 
   E E E E E E   E E E E E E   E E E E E E      H.            +Q    +Q.   S S 
e|-------------|-------------|-----0---0---|--<12>---------|-(12)--(12)-------| 
B|-----0---0---|-----0---0---|-----0-----0-|--<12>---------|-(12)--(12)-----0-| 
G|-----0---0---|-----0---0---|---0---0-----|--<12>---------|-(12)--(12)---0---| 
D|---4---4---4-|---4---4---4-|-------------|---------------|------------------| 
A|-------------|-------------|-3-----------|---------------|------------------| 
E|-3-----------|-3-----------|-------------|---------------|------------------| 

 B2                          ^              ^ 
   E E E E E E   E E E E  Q    E E E E E E    E E E E E E 
e|-5---5---7---|-2-----------|-2---2---5---|--3---2---0----| 
B|-----0-------|-----3----3--|-0---0-----0-|--0---0-----0--| 
G|---0---0---0-|-----4----4--|-0-0---0-----|----0---0------| 
D|-------------|---4---4-----|-------------|---------------| 
A|-------------|-------------|-3-----------|--3------------| 
E|-3-----------|-3-----------|-------------|---------------| 

                                                ^ 
   E E E E E E   E E E E E E   E E E E E E      E   E E E E E 
e|-------------|-------------|---------0---|--<12>--------------| 
B|-----3---3---|-----0---0---|-----0-------|--<12>------0-------| 
G|-----4---4---|-----0---0---|-----0-----0-|--<12>----0---0-----| 
D|---4---4---4-|---4---4---4-|---5---5-----|--------2-------0---| 
A|-------------|-------------|-3-----------|--------------------| 
E|-3-----------|-3-----------|-------------|--------------------| 

                               ^              ^      
   E E E E E E   E E E E  Q    E E E E E E    E E E E E E 
e|-5---5---7---|-2-----------|-2---2---5---|--3---2---0----| 
B|-----0-------|-----3----3--|-0---0-----0-|--0---0-----0--| 
G|---0---0---0-|-----4-------|-0-0---0-----|----0---0------| 
D|-------------|---4---4-----|-------------|---------------| 
A|-------------|-------------|-3-----------|--3------------| 
E|-3-----------|-3-----------|-------------|---------------| 

                                                ^ 
   E E E E E E   E E E E E E   E E E E E E      E   E E E E E 
e|-------------|-------------|---------0---|--<12>--------------| 
B|-----3---3---|-----0---0---|-----0-------|--<12>------0-------| 
G|-----0---0---|-----0---0---|-----0-----0-|--<12>----0---0-----| 
D|---4---4---4-|---4---4---4-|---5---5-----|--------2-------0---| 
A|-------------|-------------|-3-----------|--------------------| 
E|-3-----------|-3-----------|-------------|--------------------| 

 C2                                  ^  
   E E E E E E   E E E E E E   E E E E E E   E E E E E E 
e|-------------|---------2/5-|-5-----3-3-5-|-0-------------| 
B|---------0-1-|-0-----------|-3---3-3-3---|-------2-------| 
G|-2-----2-----|-----2-------|-4---4---4---|-----0---0-----| 
D|-----2-------|---1---1-----|---5---------|---2-------2---| 
A|---0---------|-2-----------|-------------|-0-------------| 
E|-2-----------|-------------|-0-----------|---------------| 

    ^ 
    E E E E E E   E E E S.  T a E E   E E E E E E   E E E E E E 
e|------------3/|-7-----5-----------|-----------0-|-------------| 
B|--1-----0-1---|-----5-------5h7-5-|-3-------3---|-3-----0-----| 
G|--0---0-------|-5-5-------5-------|-----0---0---|-----0---0---| 
D|--2-2---------|-0-----------------|---0---0-----|---0-------0-| 
A|--0-----------|-------------------|-------------|-------------| 
E|--------------|-------------------|-3-----------|-1-----------| 

 D2                          ^              ^ 
   E E E E E E   E E E E  Q    E E E E E  E   E E E E E  E 
e|-0---0---3---|-7-----------|-----------10-|-7-------7-10-| 
B|-----0-------|-----8----8--|-3-----2-3----|-6------------| 
G|---0---0---0-|-----9----9--|-2---2--------|-----7--------| 
D|-------------|---9---9-----|-4-4----------|---6---6------| 
A|-3-----------|-------------|-2------------|--------------| 
E|-------------|-8-----------|--------------|-0------------| 

     ^              ^              ^              ^ 
     E E E E E E    E E E E E E    E E E E E E    E E E E E E 
e|--10---8---7---|--5-------7---|--5-------5-3-|---------------| 
B|-------------8-|--5---5-----5-|--4---4-------|--3---3---3----| 
G|-----7---7-----|--5-5---5-----|--5-5---5-----|--0---0--------| 
D|---------------|--0-----------|--0-----------|----0---0---0--| 
A|---0-----------|--------------|--------------|---------------| 
E|---------------|--------------|--------------|--3------------| 

                               ^              ^ 
   E E E E E E   E E E E Q     E E E E E E    E E E E  Q 
e|-0---0---3---|-7----------|----------2---|--5------------| 
B|-0---0-----0-|-----8---8--|--3---3---3---|--3---3----3---| 
G|---0---0-----|-----9------|--2---2-------|------2----2---| 
D|-------------|---9---9----|--4-4---4---4-|----4---4------| 
A|-3-----------|------------|--2-----------|--2------------| 
E|-------------|-8----------|--------------|---------------| 

                 ^                           ^ 
   E E E E E E   E E E E E E   E E E E E E   E E E E E E 
e|---------0---|-3-------3-5-|-2---------0-|---------------| 
B|-1---1-------|-1---1-------|-----3---3---|-3-----0-------| 
G|-----2-------|-2---2-------|-----4---4---|-0---0---0-----| 
D|---2---2---2-|---2---2-----|---4---4-----|---0-------0---| 
A|-0-----------|-0-----------|-------------|---------------| 
E|-------------|-------------|-3-----------|-1-------------| 

                                    ^ 
   E E E E E E   a  E E E E E  E    E E E E E E   E E E E E E 
e|-0---0---0-3-|-8h10-----8------|--7---------5-|---------0----| 
B|-------3-----|--------8---8-10-|--7-----7-----|-9-----6---3--| 
G|---0---------|------8----------|------7---7---|-----7--------| 
D|-------------|-----------------|----7---------|---9----------| 
A|-3-----------|-----------------|--------------|--------------| 
E|-------------|----8------------|--7-----------|-0------------| 

    ^                           ^             ^ 
    E E E E E E   E E E E  Q    E E E E E E   E E E E E E 
e|------------3/|-7--------7--|-5-------5-3-|-3------------| 
B|--1-----0-1---|-----5-------|-4---4-------|-3-----3------| 
G|--0---0-------|---5---5-----|-5-5---5-----|-0---0---0----| 
D|--2-2---------|-0-----------|-0-----------|---0-------0--| 
A|--0-----------|-------------|-------------|--------------| 
E|--------------|-------------|-------------|-3------------| 

 Ending 
   E     E     E     E     E     E       E     E     E     E     E     E 
e|-------------------------------------|-3(15)--------------------------------| 
B|-------------------------------5(17)-|-------------------5(17)--------------| 
G|-------------4(16)-------4(16)-------|-------------4(16)-------4(16)--------| 
D|-------5(17)-------5(17)-------------|-------5(17)-------------------5(17)--| 
A|-3(15)-------------------------------|--------------------------------------| 
E|-------------------------------------|--------------------------------------| 


   E     E     E     E     E     E       E     E     E     E     E     E 
e|-------------------------------------|-5(17)--------------------------------| 
B|-------------------------------3(15)-|-------------------3(15)--------------| 
G|-------------2(14)-------2(14)-------|-------------2(14)-------2(14)--------| 
D|-------4(16)-------4(16)-------------|-------4(16)-------------------4(16)--| 
A|-2(14)-------------------------------|--------------------------------------| 
E|-------------------------------------|--------------------------------------| 


   E     E     E     E     E     E       E     E     E     E     E     E 
e|-------------------------------------|-3(15)--------------------------------| 
B|-------------------------------1(13)-|-------------------1(13)--------------| 
G|-------------0(12)-------0(12)-------|-------------0(12)-------0(12)--------| 
D|-------2(14)-------2(14)-------------|-------2(14)-------------------2(14)--| 
A|-0(12)-------------------------------|--------------------------------------| 
E|-------------------------------------|--------------------------------------| 


   E     E     E     E     E     E       E     E     E     E     E     E 
e|-------------------------------------|--------------------------------------| 
B|-------------------------------------|-------------------------------0(12)--| 
G|-------------------------------------|-------------0(12)-------0(12)--------| 
D|-------------0(12)-------------0(12)-|-------0(12)-------0(12)--------------| 
A|-------2(14)-------------2(14)-------|--------------------------------------| 
E|-3(15)-------------3(15)-------------|-1(13)--------------------------------| 


   E     E     E     E     E     E       E     E     E     E     E     E 
e|-------------------------------------|-3(15)--------------------------------| 
B|-------------------------------5(17)-|-------------------5(17)--------------| 
G|-------------4(16)-------4(16)-------|-------------4(16)-------4(16)--------| 
D|-------5(17)-------5(17)-------------|-------5(17)-------------------5(17)--| 
A|-3(15)-------------------------------|--------------------------------------| 
E|-------------------------------------|--------------------------------------| 


   E     E     E     E     E     E       E     E     E     E     E     E 
e|-------------------------------5(17)-|-4(16)--------------------------------| 
B|-------------------------3(15)-------|--------------------------------------| 
G|-------------2(14)-------------------|-------------------4(16)--------------| 
D|-------4(16)-------4(16)-------------|-------------2(14)-------2(14)--------| 
A|-2(14)-------------------------------|-------------------------------2(14)--| 
E|-------------------------------------|-------0(12)--------------------------| 

    ^       ^                                   ^ 
    E E E E E E   E E E E E E   E E E E  Q      H. 
e|------------3/|-7-------7---|-5--------5--|---3---------|| 
B|--1-----0-1---|-----5-----5-|-4---4-------|---0---------|| 
G|--0---0---0---|-5-5---5-----|-5-5---5-----|---2---------|| 
D|--2-2-----2---|-0-----------|-0-----------|---0---------|| 
A|--0-----------|-------------|-------------|-------------|| 
E|--------------|-------------|-------------|---3---------|| 



Duration Legend 
--------------- 
W - whole 
H - half 
Q - quarter 
E - 8th 
S - 16th 
T - 32nd 
. - note dotted 


Tablature Legend 
---------------- 
 h   - hammer-on 
 p   - pull-off 
/ -  slide into from below or out of upwards 
\ -  slide into from above or out of downwards 
^ - brush up 
v - brush down 
 - natural harmonic 
n(n) - tapped harmonic 
  

top 5 | eunsung kim
top rock'n roll
Outras músicas do artista letras do(a) Eunsung Kim
Top cifras »Top artistas »
Petaxxon Comunicação Online
Cifras.com.br - Melhor e mais completo site de cifras e tablaturas do Brasil
Mais de 1 milhão de acordes de músicas cadastradas desde 2003
As informações contidas no nosso site são colaborações de seus usuários e podem conter erros, sendo assim, não nos responsabilizamos sobre nenhuma destas.
close
menos
mais
close
Cor dos acordes:

Cor da letra:

 

save
close
close
 
redimensionar