Cifras e Tablaturas
Every Time I Die

Every Time I Die

Glitches

Cifras Cancelar Versão de Impressão
cifras

Every Time I Die - Glitches

fixar na tela  
Exibindo: vídeo-aula ver clipes redimensionar
  
INTRO 
Guitar 1 
E|-----------------------| 
B|-----------------------| 
G|-----------------------| 
D|-----------\\\\\\\\\\\-| 
A|-----------\pickslide\-| 
D|-----------\\\\\\\\\\\-| 
|| 
Guitar 2 
E|-0---------------------| 
B|-0---------------------| 
G|-0---------------------| 
D|-----------------------| 
A|-----------------------| 
D|-----------------------| 

SECTION 1A 
Both Guitars 
E|----0---------------0---------------0---------------0------| 
B|----0---------------0---------------0---------------0------| 
G|----0---------------0---------------0---------------0------| 
D|-8-----2-2--0--2-2-----1-1-------8-----2-2--0--2-2-----1-1-| 
A|-8-----2-2--0--2-2-----1-1-------8-----2-2--0--2-2-----1-1-| 
D|-8-----2-2--0--2-2-----1-1-0000008-----2-2--0--2-2-----1-1-| 
                             ...... 

E|----0---------------0---------------0---------------0--------------| 
B|----0---------------0---------------0---------------0--------------| 
G|----0---------------0----8-5-7-4----0---------------0--------------| 
D|-8-----2-2--0--2-2-----1-x-x-x-x-8-----2-2--0--2-2-----1-1---------| 
A|-8-----2-2--0--2-2-----1-6-3-5-2-8-----2-2--0--2-2-----1-1-0-0-0-0-| 
D|-8-----2-2--0--2-2-----1---------8-----2-2--0--2-2-----1-1-0-0-0-0-| 
                                                             . . . . 

SECTION 2 
Both Guitars 
E|-------------------------------------------------------------| 
B|-------------------------------------------------------------| 
G|-------------------------------------------------------------| 
D|-2--1--3-6--5--0-1--3--6-6-------2--1--3-6--5--0-1--3--6-6---| 
A|-2--1--3-6--5--0-1--3--6-6-000-002--1--3-6--5--0-1--3--6-6-0-| 
D|-2--1--3-6--5--0-1--3--6-6-000-002--1--3-6--5--0-1--3--6-6-0-| 
                             ... ..                          . 

E|------------------------------------------------------------------| 
B|------------------------------------------------------------------| 
G|------------------------------------------------------------------| 
D|-2--1--3-6--5--0-1--3--6-6-------2--1--3-6--5--0-1--3--6----------| 
A|-2--1--3-6--5--0-1--3--6-6-000-002--1--3-6--5--0-1--3--6----------| 
D|-2--1--3-6--5--0-1--3--6-6-000-002--1--3-6--5--0-1--3--6-00000000-| 
                             ... ..                        ........ 
SECTION 3A 
Both Guitars 
E|-----------0-----------------0-------------------------0--| 
B|-----------0-----------------0-------------------------0--| 
G|-----------0-----------------0-------------------------0--| 
D|-10--9--8----------10--9--8----------10--9--8-10--9--8-0--| 
A|-10--9--8----------10--9--8----------10--9--8-10--9--8----| 
D|-10--9--8----00000010--9--8----00000010--9--8-10--9--8----| 
               ......            ...... 

SECTION 1B 
Both Guitars 
E|----0---------------0---------------0---------------0------------| 
B|----0---------------0---------------0---------------0------------| 
G|----0---------------0--8-8----------0---------------0--------<5>-| 
D|-8-----2-2--0--2-2-----x-x-------8-----2-2--0--2-2-----1---------| 
A|-8-----2-2--0--2-2-----6-6-------8-----2-2--0--2-2-----1-0-0-----| 
D|-8-----2-2--0--2-2---------0000008-----2-2--0--2-2-----1-0-0-----| 
                             ......                        . . 

E|----0---------------0---------------0---------------0--------------| 
B|----0---------------0---------------0---------------0--------------| 
G|----0---------------0----8-5-7-4----0---------------0--------------| 
D|-8-----2-2--0--2-2-----1-x-x-x-x-8-----2-2--0--2-2-----1-1---------| 
A|-8-----2-2--0--2-2-----1-6-3-5-2-8-----2-2--0--2-2-----1-1-0-0-0-0-| 
D|-8-----2-2--0--2-2-----1---------8-----2-2--0--2-2-----1-1-0-0-0-0-| 
                                                             . . . . 
SECTION 2 
Both Guitars 
E|-------------------------------------------------------------| 
B|-------------------------------------------------------------| 
G|-------------------------------------------------------------| 
D|-2--1--3-6--5--0-1--3--6-6-------2--1--3-6--5--0-1--3--6-6---| 
A|-2--1--3-6--5--0-1--3--6-6-000-002--1--3-6--5--0-1--3--6-6-0-| 
D|-2--1--3-6--5--0-1--3--6-6-000-002--1--3-6--5--0-1--3--6-6-0-| 
                             ... ..                          . 

E|------------------------------------------------------------------| 
B|------------------------------------------------------------------| 
G|------------------------------------------------------------------| 
D|-2--1--3-6--5--0-1--3--6-6-------2--1--3-6--5--0-1--3--6----------| 
A|-2--1--3-6--5--0-1--3--6-6-000-002--1--3-6--5--0-1--3--6----------| 
D|-2--1--3-6--5--0-1--3--6-6-000-002--1--3-6--5--0-1--3--6-00000000-| 
                             ... ..                        ........ 
SECTION 3B 
Both Guitars 
E|-----------0-----------------0-------------------------------------------| 
B|-----------0-----------------0-------------------------------------------| 
G|-----------0-----------------0-------------------------------------------| 
D|-10--9--8----------10--9--8----------10--9--8-10--9--8-10--9--8----------| 
A|-10--9--8----------10--9--8----------10--9--8-10--9--8-10--9--8----------| 
D|-10--9--8----00000010--9--8----00000010--9--8-10--9--8-10--9--8-00000000-| 
               ......            ......                           ........ 

TRANSITION 1 
Guitar 1 
E|-------------| 
B|-------------| 
G|-------------| 
D|-------------| 
A|-------------| 
D|-2-1-3/6—2/5-| 

SECTION 4 
Guitar 1 
E|-----------------------------------------------------------------| 
B|-----------------------------------------------------------------| 
G|----------------------------9-9-10-------------------------------| 
D|-0--0-----------------------8-8--9-------------------------------| 
A|-0--0-0-0-0-0-0-0-0-0-0-0-0-7-7--8-0-0-0-0-0-0-0-0-7-6-8/11—7/10-| 
D|-0--0-0-0-0-0-0-0-0-0-0-0-0--------0-0-0-0-0-0-0-0---------------| 
||      . . . . . . . . . . .        . . . . . . . . 
|| 
Guitar 2 
E|----------------------------12-12-13-------------------------------| 
B|----------------------------11-11-12-------------------------------| 
G|-----------------------------9--9-10-------------------------------| 
D|-0--0--------------------------------------------------------------| 
A|-0--0-0-0-0-0-0-0-0-0-0-0-0----------0-0-0-0-0-0-0-0-7-6-8/11—7/10-| 
D|-0--0-0-0-0-0-0-0-0-0-0-0-0----------0-0-0-0-0-0-0-0---------------| 
        . . . . . . . . . . .          . . . . . . . . 

Guitar 1 
E|------------------------------------------------------------------------| 
B|------------------------------------------------------------------------| 
G|----------------------------9-9-10--------------------------------------| 
D|-0--0-----------------------8-8--9---------------6--5-5-4-4-3-3-0-1/4-0-| 
A|-0--0-0-0-0-0-0-0-0-0-0-0-0-7-7--8-0-0-0-0-0-0-0-6--5-5-4-4-3-3-0-1/4-0-| 
D|-0--0-0-0-0-0-0-0-0-0-0-0-0--------0-0-0-0-0-0-0-6--5-5-4-4-3-3-0-1/4-0-| 
        . . . . . . . . . . .        . . . . . . . 

Guitar 2 
E|----------------------------12-12-13--------------------------------------| 
B|----------------------------11-11-12--------------------------------------| 
G|-----------------------------9--9-10--------------------------------------| 
D|-0--0----------------------------------------------6--5-5-4-4-3-3-0-1/4-0-| 
A|-0--0-0-0-0-0-0-0-0-0-0-0-0----------0-0-0-0-0-0-0-6--5-5-4-4-3-3-0-1/4-0-| 
D|-0--0-0-0-0-0-0-0-0-0-0-0-0----------0-0-0-0-0-0-0-6--5-5-4-4-3-3-0-1/4-0-| 
        . . . . . . . . . . .          . . . . . . . 
Guitar 1 
E|-----------------------------------------------------------| 
B|-----------------------------------------------------------| 
G|--------------------9-9-10---------------------------------| 
D|--------------------8-8--9-----------------9-8-10/13--9/12-| 
A|--0-0-0-0-0-0-0-0-0-7-7--8-0-0-0-0-0-0-0-0-7-6--8/11--7/10-| 
D|--0-0-0-0-0-0-0-0-0--------0-0-0-0-0-0-0-0-----------------| 
||  . . . . . . . . .        . . . . . . . . 
|| 
Guitar 2 
E|--------------------12-12-13--------------------------------| 
B|--------------------11-11-12--------------------------------| 
G|---------------------9--9-10--------------------------------| 
D|------------------------------------------------------------| 
A|--0-0-0-0-0-0-0-0-0----------0-0-0-0-0-0-0-0-7-6-8/11--7/10-| 
D|--0-0-0-0-0-0-0-0-0----------0-0-0-0-0-0-0-0----------------| 
||  . . . . . . . . .          . . . . . . . . 

Guitar 1 
E|-----------------------------------------------------------------------------------| 
B|-----------------------------------------------------------------------------------| 
G|----------------------------9-9-10-------------------------------------------------| 
D|-0--0-----------------------8-8--9---------------10--9-9-8-8-7-7-6-6-5-5-4-4-3-0-0-| 
A|-0--0-0-0-0-0-0-0-0-0-0-0-0-7-7--8-0-0-0-0-0-0-0-10--9-9-8-8-7-7-6-6-5-5-4-4-3-0-0-| 
D|-0--0-0-0-0-0-0-0-0-0-0-0-0--------0-0-0-0-0-0-0-10--9-9-8-8-7-7-6-6-5-5-4-4-3-0-0-| 
||      . . . . . . . . . . .        . . . . . . . 
|| 
Guitar 2 
E|----------------------------12-12-13-------------------------------------------------| 
B|----------------------------11-11-12-------------------------------------------------| 
G|-----------------------------9--9-10-------------------------------------------------| 
D|-0--0----------------------------------------------10--9-9-8-8-7-7-6-6-5-5-4-4-3-5-0-| 
A|-0--0-0-0-0-0-0-0-0-0-0-0-0----------0-0-0-0-0-0-0-10--9-9-8-8-7-7-6-6-5-5-4-4-3-3-0-| 
D|-0--0-0-0-0-0-0-0-0-0-0-0-0----------0-0-0-0-0-0-0-10--9-9-8-8-7-7-6-6-5-5-4-4-3---0-| 
        . . . . . . . . . . .          . . . . . . . 

SECTION 5 
Both Guitars 
E|-----------------------------------------------------------------| 
B|-----------------------------------------------------------------| 
G|-9-------------------------------9-------------------------------| 
D|-8-------------------------------8-------------6-6-5-5-4-4-3-5-0-| 
A|-7-0-0-0-0-0-0-0-1-0-1-3-0-3-4-0-7-0-0-0-0-0-0-6-6-5-5-4-4-3-3-0-| 
D|---0-0-0-0-0-0-0-1-0-1-3-0-3-4-0---0-0-0-0-0-0-6-6-5-5-4-4-3---0-| 
     . . . . . .                     . . . . . . 
E|------------------------------------------------------------------------------| 
B|------------------------------------------------------------------------------| 
G|-9-------------9-9---------------9--------------------------------------------| 
D|-8-------------8-8---------------8-------------10--9-9-8-8-7-7-6--5-----------| 
A|-7-0-0-0-0-0-0-7-7-0-1-3-0-3-4-0-7-0-0-0-0-0-0-10--9-9-8-8-7-7-6--5-----------| 
D|---0-0-0-0-0-0-----0-1-3-0-3-4-0---0-0-0-0-0-0-10--9-9-8-8-7-7-6--5-555444330-| 
     . . . . . .                     . . . . . . 

E|-----------------------------------------------------------------| 
B|-----------------------------------------------------------------| 
G|-9-------------------------------9-------------------------------| 
D|-8-------------------------------8-------------6-6-5-5-4-4-3-5-0-| 
A|-7-0-0-0-0-0-0-0-1-0-1-3-0-3-4-0-7-0-0-0-0-0-0-6-6-5-5-4-4-3-3-0-| 
D|---0-0-0-0-0-0-0-1-0-1-3-0-3-4-0---0-0-0-0-0-0-6-6-5-5-4-4-3---0-| 
     . . . . . .                     . . . . . . 
E|-------------------------------------------------------------------| 
B|-------------------------------------------------------------------| 
G|-9-------------9-9---------------9---------------------------------| 
D|-8-------------8-8---------------8-------------10-10-9-9-8-8-7-7-6-| 
A|-7-0-0-0-0-0-0-7-7-0-1-3-0-3-4-0-7-0-0-0-0-0-0-10-10-9-9-8-8-7-7-6-| 
D|---0-0-0-0-0-0-----0-1-3-0-3-4-0---0-0-0-0-0-0-10-10-9-9-8-8-7-7-6-| 
     . . . . . .                     . . . . . . 

SECTION 1A 
Both Guitars 
E|----0---------------0---------------0---------------0------| 
B|----0---------------0---------------0---------------0------| 
G|----0---------------0---------------0---------------0------| 
D|-8-----2-2--0--2-2-----1-1-------8-----2-2--0--2-2-----1-1-| 
A|-8-----2-2--0--2-2-----1-1-------8-----2-2--0--2-2-----1-1-| 
D|-8-----2-2--0--2-2-----1-1-0000008-----2-2--0--2-2-----1-1-| 
                             ...... 

E|----0---------------0---------------0---------------0--------------| 
B|----0---------------0---------------0---------------0--------------| 
G|----0---------------0----8-5-7-4----0---------------0--------------| 
D|-8-----2-2--0--2-2-----1-x-x-x-x-8-----2-2--0--2-2-----1-1---------| 
A|-8-----2-2--0--2-2-----1-6-3-5-2-8-----2-2--0--2-2-----1-1-0-0-0-0-| 
D|-8-----2-2--0--2-2-----1---------8-----2-2--0--2-2-----1-1-0-0-0-0-| 
                                                             . . . . 
SECTION 2 
Both Guitars 
E|-------------------------------------------------------------| 
B|-------------------------------------------------------------| 
G|-------------------------------------------------------------| 
D|-2--1--3-6--5--0-1--3--6-6-------2--1--3-6--5--0-1--3--6-6---| 
A|-2--1--3-6--5--0-1--3--6-6-000-002--1--3-6--5--0-1--3--6-6-0-| 
D|-2--1--3-6--5--0-1--3--6-6-000-002--1--3-6--5--0-1--3--6-6-0-| 
                             ... ..                          . 

E|------------------------------------------------------------------| 
B|------------------------------------------------------------------| 
G|------------------------------------------------------------------| 
D|-2--1--3-6--5--0-1--3--6-6-------2--1--3-6--5--0-1--3--6----------| 
A|-2--1--3-6--5--0-1--3--6-6-000-002--1--3-6--5--0-1--3--6----------| 
D|-2--1--3-6--5--0-1--3--6-6-000-002--1--3-6--5--0-1--3--6-00000000-| 
                             ... ..                        ........ 
SECTION 3C 
Guitar 1 
E|-----------0-----------------0--------------------------------------------| 
B|-----------0-----------------0-------------------------10-----------------| 
G|-----------0-----------------0-------------------------12b14--------------| 
D|-10--9--8----------10--9--8----------10--9--8-10--9--8--------------------| 
A|-10--9--8----------10--9--8----------10--9--8-10--9--8--------------------| 
D|-10--9--8----00000010--9--8----00000010--9--8-10--9--8--------------------| 
||             ......            ...... 
|| 
Guitar 2 
E|-----------0-----------------0--------------------------0-----------------| 
B|-----------0-----------------0--------------------------0-----------------| 
G|-----------0-----------------0--------------------------0-----------------| 
D|-10--9--8----------10--9--8----------10--9--8-10--9--8--0-----\\\\\\\\\\\-| 
A|-10--9--8----------10--9--8----------10--9--8-10--9--8--------\pickslide\-| 
D|-10--9--8----00000010--9--8----00000010--9--8-10--9--8--------\\\\\\\\\\\-| 

TRANSITION 2 
Guitar 1 
E|-----0-------------0---| 
B|-----0-------------0---| 
G|-----0-------------0---| 
D|-1-2---2---1-2-0-1---2-|x2 
A|-1-2---2---1-2-0-1---2-| 
D|-1-2---2---1-2-0-1---2-| 

SECTION 6 
Both Guitars 
E|-----0-------------0---------0---------------------| 
B|-----0-------------0---------0---------------------| 
G|-----0-------------0---------0---------------------| 
D|-1-2---2---1-2-0-1---2---1-2---2---1-2-------------| 
A|-1-2---2---1-2-0-1---2---1-2---2---1-2-------------| 
D|-1-2---2---1-2-0-1---2---1-2---2---1-2-0-1-2---6\--| 

E|-----0-------------0---------0-----------------------| 
B|-----0-------------0---------0-----------------------| 
G|-----0-------------0---------0-------------9-----9---| 
D|-1-2---2---1-2-0-1---2---1-2---2---1-2-----8-6---8-5-| 
A|-1-2---2---1-2-0-1---2---1-2---2---1-2-----7-6---7-5-| 
D|-1-2---2---1-2-0-1---2---1-2---2---1-2-0-1---6-----5-| 

E|-----0-------------0---------0--------------------| 
B|-----0-------------0---------0--------------------| 
G|-----0-------------0---------0--------------------| 
D|-1-2---2---1-2-0-1---2---1-2---2---1-2------------| 
A|-1-2---2---1-2-0-1---2---1-2---2---1-2--------7*~-| 
D|-1-2---2---1-2-0-1---2---1-2---2---1-2-0-1-2------| 

E|-----0-------------0---------0-----------------------| 
B|-----0-------------0---------0-----------------------| 
G|-----0-------------0---------0-------------9-----9---| 
D|-1-2---2---1-2-0-1---2---1-2---2---1-2-----8-6---8-5-| 
A|-1-2---2---1-2-0-1---2---1-2---2---1-2-----7-6---7-5-| 
D|-1-2---2---1-2-0-1---2---1-2---2---1-2-0-1---6-----5-| 

Hey all, this was a little tricky in some places, as with the dissonant chords, 
but this should be mostly correct as far as I can tell. Feel free to comment me 
any corrections though. 
Thanks, 
millarso 
************************************ 
| .   palm mute (below bar) 
| /   slide up 
| \   slide down 
| h   hammer-on 
| p   pull-off 
| ~   vibrato 
| b   Bend 
| <>  natural harmonic 
| *   pinch harmonic 

************************************ 
  

top 5 | every time i die
top rock'n roll
Outras músicas do artista letras do(a) Every Time I Die
Top cifras »Top artistas »
Petaxxon Comunicação Online
Cifras.com.br - Melhor e mais completo site de cifras e tablaturas do Brasil
Mais de 1 milhão de acordes de músicas cadastradas desde 2003
As informações contidas no nosso site são colaborações de seus usuários e podem conter erros, sendo assim, não nos responsabilizamos sobre nenhuma destas.
close
menos
mais
close
Cor dos acordes:

Cor da letra:

 

save
close
close
 
redimensionar