Cifras e Tablaturas
Cifras Cancelar Versão de Impressão
cifras

Everything Everything - Desire

fixar na tela  
Exibindo: vídeo-aula ver clipes redimensionar

Tom:

D

ver outros tons
  
Intro 
Guitar 1 (Synth) 
e|--9--9--9--9--9--9-8-------| 
B|---------------------11----| 
G|---------------------------| (10x) 
D|---------------------------| 
A|---------------------------| 
E|---------------------------| 
Guitar 2 (U-U-D-U-D) 
e|----------------------------------------|----------------------------------------| 
B|--18--18--18-16-------18--18--18-16-----|--18--18--18-16-------18--18--18-16-----| 
G|----------------18------------------18--|----------------18------------------18--| 
D|----------------------------------------|----------------------------------------| 
A|----------------------------------------|----------------------------------------| 
E|----------------------------------------|----------------------------------------| 

e|----------------------------------------|----------------------------------------| 
B|-19--19--19-18--------19--19--19-18-----|-19--19--19-18--------21--21--21-18-----| 
G|---------------18-------------------18--|---------------18-------------------18--| 
D|----------------------------------------|----------------------------------------| 
A|----------------------------------------|----------------------------------------| 
E|----------------------------------------|----------------------------------------| 

e|--18--18--18-16-------18--18--18-16-----|-20--20--20-18--------20--20--20-18-----| 
B|----------------------------------------|----------------------------------------| 
G|----------------18------------------18--|---------------18-------------------18--| 
D|----------------------------------------|----------------------------------------| 
A|----------------------------------------|----------------------------------------| 
E|----------------------------------------|----------------------------------------| 

e|-21--21--21-18--------21--21--21-18-----|---21--21--21-18--------21--21--21-18----| 
B|----------------------------------------|-----------------------------------------| 
G|---------------18-------------------18--|-----------------18-------------------18-| 
D|----------------------------------------|-----------------------------------------| 
A|----------------------------------------|-----------------------------------------| 
E|----------------------------------------|-----------------------------------------| 

Verse 
NO GUITAR 

Pre-Chorus 
Guitar 1 (synth) 
e|--9--9--9--9--9--9-8-----------| 
B|---------------------11--------| 
G|-------------------------------| (8x) 
D|-------------------------------| 
A|-------------------------------| 
E|-------------------------------| 
Guitar 2 (start each measure at the 3rd note of 'Guitar 1') 
e|--------14-------16p14---------|-----------13-------14p13---------| 
B|--16-------16----------16------|-----14-------14----------14------| 
G|-----15-------15---------------|--------13-------13---------------| 
D|-------------------------------|----------------------------------| 
A|-------------------------------|----------------------------------| 
E|-------------------------------|----------------------------------| 

e|--------17-------18p17---------|------------18-------20p18--------| 
B|--18-------18----------18------|------19-------19----------19-----| 
G|-----17-------17---------------|---------18-------18--------------| (2x) 
D|-------------------------------|----------------------------------| 
A|-------------------------------|----------------------------------| 
E|-------------------------------|----------------------------------| 


Chorus (same as Intro) 
Guitar 1 (Synth) 
e|--9--9--9--9--9--9-8-------| 
B|---------------------11----| 
G|---------------------------| (10x) 
D|---------------------------| 
A|---------------------------| 
E|---------------------------| 
Guitar 2 (U-U-D-U-D) 
e|----------------------------------------|----------------------------------------| 
B|--18--18--18-16-------18--18--18-16-----|--18--18--18-16-------18--18--18-16-----| 
G|----------------18------------------18--|----------------18------------------18--| 
D|----------------------------------------|----------------------------------------| 
A|----------------------------------------|----------------------------------------| 
E|----------------------------------------|----------------------------------------| 

e|----------------------------------------|----------------------------------------| 
B|-19--19--19-18--------19--19--19-18-----|-19--19--19-18--------21--21--21-18-----| 
G|---------------18-------------------18--|---------------18-------------------18--| 
D|----------------------------------------|----------------------------------------| 
A|----------------------------------------|----------------------------------------| 
E|----------------------------------------|----------------------------------------| 

e|--18--18--18-16-------18--18--18-16-----|-20--20--20-18--------20--20--20-18-----| 
B|----------------------------------------|----------------------------------------| 
G|----------------18------------------18--|---------------18-------------------18--| 
D|----------------------------------------|----------------------------------------| 
A|----------------------------------------|----------------------------------------| 
E|----------------------------------------|----------------------------------------| 

e|-21--21--21-18--------21--21--21-18-----|---21--21--21-18--------21--21--21-18----| 
B|----------------------------------------|-----------------------------------------| 
G|---------------18-------------------18--|-----------------18-------------------18-| 
D|----------------------------------------|-----------------------------------------| 
A|----------------------------------------|-----------------------------------------| 
E|----------------------------------------|-----------------------------------------| 

Verse 
NO GUITAR 

Pre-Chorus 
Guitar 1 (synth) 
e|--9--9--9--9--9--9-8-----------| 
B|---------------------11--------| 
G|-------------------------------| (8x) 
D|-------------------------------| 
A|-------------------------------| 
E|-------------------------------| 
Guitar 2 
e|--------14-------16p14---------|-----------13-------14p13------------------| 
B|--16-------16----------16------|-----14-------14----------14---------------| 
G|-----15-------15---------------|--------13-------13------------------------| 
D|-------------------------------|-------------------------------------------| 
A|-------------------------------|-------------------------------------------| 
E|-------------------------------|-------------------------------------------| 

e|--------17-------18p17---------|------------18-------20p18-----------------| 
B|--18-------18----------18------|------19-------19----------19--------------| 
G|-----17-------17---------------|---------18-------18-----------------------| (2x) 
D|-------------------------------|-------------------------------------------| 
A|-------------------------------|-------------------------------------------| 
E|-------------------------------|-------------------------------------------| 

Chorus (same as Intro) 
Guitar 1 (Synth) 
e|--9--9--9--9--9--9-8-------| 
B|---------------------11----| 
G|---------------------------| (10x) 
D|---------------------------| 
A|---------------------------| 
E|---------------------------| 
Guitar 2 (U-U-D-U-D) 
e|----------------------------------------|----------------------------------------| 
B|--18--18--18-16-------18--18--18-16-----|--18--18--18-16-------18--18--18-16-----| 
G|----------------18------------------18--|----------------18------------------18--| 
D|----------------------------------------|----------------------------------------| 
A|----------------------------------------|----------------------------------------| 
E|----------------------------------------|----------------------------------------| 

e|----------------------------------------|----------------------------------------| 
B|-19--19--19-18--------19--19--19-18-----|-19--19--19-18--------21--21--21-18-----| 
G|---------------18-------------------18--|---------------18-------------------18--| 
D|----------------------------------------|----------------------------------------| 
A|----------------------------------------|----------------------------------------| 
E|----------------------------------------|----------------------------------------| 

e|--18--18--18-16-------18--18--18-16-----|-20--20--20-18--------20--20--20-18-----| 
B|----------------------------------------|----------------------------------------| 
G|----------------18------------------18--|---------------18-------------------18--| 
D|----------------------------------------|----------------------------------------| 
A|----------------------------------------|----------------------------------------| 
E|----------------------------------------|----------------------------------------| 

e|-21--21--21-18--------21--21--21-18-----|---21--21--21-18--------21--21--21-18----| 
B|----------------------------------------|-----------------------------------------| 
G|---------------18-------------------18--|-----------------18-------------------18-| 
D|----------------------------------------|-----------------------------------------| 
A|----------------------------------------|-----------------------------------------| 
E|----------------------------------------|-----------------------------------------| 

Bridge 
e|----------------------------|-----------------------------|-----------------------------| 
B|------------------9---7---9-|----9---7---9----------------|----9---7---9----------------| 
G|----------------------------|-----------------------------|-----------------------------| 
D|--6-6-6-6-6-6---6---6---6---|--6---6---6-----6-6-6-6-6-6--|--6---6---6-----6-6-6-6-6-6--| 
A|----------------------------|-----------------------------|-----------------------------| 
E|----------------------------|-----------------------------|-----------------------------| 

e|----------------------------|-----------------------------|-----------------------------| 
B|----9---7---9---------------|----9---7---9----------------|----9---7---9-----6---7---9--| 
G|----------------------------|------------------8---8---8--|-----------------------------| 
D|--6---6---6-----6-6-6-6-6-6-|--6---6---6-----6---6---6----|--6---6---6-----6---6---6----| 
A|----------------------------|-----------------------------|-----------------------------| 
E|----------------------------|-----------------------------|-----------------------------| 

e|----------------------------|-----------------(9)---------|------------9-9-9-9-9-8-8----| 
B|----9---7---9---------------|----9---7---9-----9---7---9--|----9---7---9-9-9-9-9-9-9----| 
G|------------------8---8---8-|-----------------------------|-----------------------------| 
D|--6---6---6-----6---6---6---|--6---6---6-----6---6---6----|--6---6---6------------------| 
A|----------------------------|-----------------------------|-----------------------------| 
E|----------------------------|-----------------------------|-----------------------------| 

e|----------------------------|-----------------------------|----9---8--------------------| 
B|----9---7---9---------9---7-|------------------9---7------|------------9-----7---9---7--| 
G|------------------8---------|----8---------------------8--|-----------------------------| 
D|--6---6---6-----6---6---6---|--6---6-6-6-6---6---6---6----|--6---6---6-----6---6---6----| 
A|----------------------------|-----------------------------|-----------------------------| 
E|----------------------------|-----------------------------|-----------------------------| 

e|-------------------------------|------------------9---8---9--|-----------------------------| 
B|----9---7----------------------|----9---7---9-------------9--|------------9-----9---7---9--| 
G|-------------------------------|-----------------------------|-----------------------------| 
D|--6---6------------------------|--6---6---6-----6---6---6----|--6-6-6-6-6-----6---6---6----| 
A|----------4b-4b-4b-4b-4b-4b-4b-|-----------------------------|-----------------------------| 
E|-------------------------------|-----------------------------|-----------------------------| 

e|----9---8---------9---8------| 
B|------------9-------------9--| 
G|-----------------------------| (3x, only last measure!) 
D|--6---6---6-----6---6---6----|  
A|-----------------------------| 
E|-----------------------------| 

Chorus (same as Intro) 
Guitar 1 (Synth) 
e|--9--9--9--9--9--9-8-------| 
B|---------------------11----| 
G|---------------------------| (10x) 
D|---------------------------| 
A|---------------------------| 
E|---------------------------| 
Guitar 2 (U-U-D-U-D) 
e|----------------------------------------|----------------------------------------| 
B|--18--18--18-16-------18--18--18-16-----|--18--18--18-16-------18--18--18-16-----| 
G|----------------18------------------18--|----------------18------------------18--| 
D|----------------------------------------|----------------------------------------| 
A|----------------------------------------|----------------------------------------| 
E|----------------------------------------|----------------------------------------| 

e|----------------------------------------|----------------------------------------| 
B|-19--19--19-18--------19--19--19-18-----|-19--19--19-18--------21--21--21-18-----| 
G|---------------18-------------------18--|---------------18-------------------18--| 
D|----------------------------------------|----------------------------------------| 
A|----------------------------------------|----------------------------------------| 
E|----------------------------------------|----------------------------------------| 

e|--18--18--18-16-------18--18--18-16-----|-20--20--20-18--------20--20--20-18-----| 
B|----------------------------------------|----------------------------------------| 
G|----------------18------------------18--|---------------18-------------------18--| 
D|----------------------------------------|----------------------------------------| 
A|----------------------------------------|----------------------------------------| 
E|----------------------------------------|----------------------------------------| 

e|-21--21--21-18--------21--21--21-18-----|---21--21--21-18--------21--21--21-18----| 
B|----------------------------------------|-----------------------------------------| 
G|---------------18-------------------18--|-----------------18-------------------18-| 
D|----------------------------------------|-----------------------------------------| 
A|----------------------------------------|-----------------------------------------| 
E|----------------------------------------|-----------------------------------------| 

Bridge 
e|-----------------------------|----9---8--------------------|----9---8---9/11--11---11---8---| 
B|----9---9---9-----7---9---6--|------------9-----9---7---9--|--------------------------------| 
G|-----------------------------|-----------------------------|--------------------------------| 
D|--6---6---6-----6---6---6----|--6---6---6-----6---6---6----|--6---6---6-----6----6----6-----| 
A|-----------------------------|-----------------------------|--------------------------------| 
E|-----------------------------|-----------------------------|--------------------------------| 


e|-----------------------------|-----------------------------|----9---8---------11---8---9----| 
B|----9---7---9---------7---9--|----6---7---9---------7---9--|------------9-------------------| 
G|------------------8----------|------------------8----------|--------------------------------| 
D|--6---6---6-----6---6---6----|--6---6---6-----6---6---6----|--6---6---6-----6----6---6------| 
A|-----------------------------|-----------------------------|--------------------------------| 
E|-----------------------------|-----------------------------|--------------------------------| 

e|----8---9---8-----9---9---11-|----11---11---11----11---11------| 
B|-----------------------------|---------------------------------| 
G|-----------------------------|---------------------------------| (Go crazy with your effect pedal 
D|--6---6---6-----6---6---6----|--6----6----6-----6----6----6----|  for 1 measure) 
A|-----------------------------|---------------------------------| 
E|-----------------------------|---------------------------------| 
                                                  
e|------------9-----8---9------|-----------------------------|--------------------------------| 
B|----9---7-----------------7--|--------9---7----------------|--------------------------------| 
G|-----------------------------|----8-------------8---8---8--|----6---6---6-----6---6---6-----| 
D|--6---6---6-----6---6---6----|--6---6---6-----6---6---6----|--8---8---8-----8---8---8-------| 
A|-----------------------------|-----------------------------|--------------------------------| 
E|-----------------------------|-----------------------------|--------------------------------| 

e|--------------------------------|-----------------------------|----9---8---9-----11---11---11-| 
B|--------------------------------|----9---7---9---------7---9--|-------------------------------| 
G|-----6----6----6----------------|------------------8----------|-------------------------------| 
D|--10---10---10-----10-8-8-8-8-6-|--6---6---6-----6---6---6----|--6---6---6-----6----6----6----| 
A|--------------------------------|-----------------------------|-------------------------------| 
E|--------------------------------|-----------------------------|-------------------------------| 

(Again: go crazy with your effect pedal for 1 measure) 

END 

************************************ 
| h   Hammer-on 
| p   Pull-off 
| b   Bend 
| /   Slide up 
| \   Slide down 
************************************ 
  

cifra enviadasem correções
enviado porenviada por:terr_schmitz
top 5 | everything everything
top pop music
Outras músicas do artista letras do(a) Everything Everything
Top cifras »Top artistas »
Petaxxon Comunicação Online
Cifras.com.br - Melhor e mais completo site de cifras e tablaturas do Brasil
Mais de 1 milhão de acordes de músicas cadastradas desde 2003
As informações contidas no nosso site são colaborações de seus usuários e podem conter erros, sendo assim, não nos responsabilizamos sobre nenhuma destas.
close
menos
mais
close
Cor dos acordes:

Cor da letra:

 

save
close
close
 
redimensionar