Cifras e Tablaturas
Evol

Evol

Get Up

Cifras Cancelar Versão de Impressão Print

Evol - Get Up

Tom:

  			

e|-------------|-------------|-------------|-------------| 
B|-1--1-1--2-1-|-1--1-1--2-1-|-1--1-1--2-1-|-1--------1--| 
G|-------------|-------------|-------------|----0--3-----| 
D|-------------|-------------|-------------|-------------| 
A|-------------|-------------|-------------|-------------| 
E|-------------|-------------|-------------|-------------| 


e|---------------------------------------------------| 
B|--13-12-11-10-------------------------------10-12--| 
G|--------------13-12-10----------10-11-12-13--------| 
D|-----------------------13-12-13--------------------| 
A|---------------------------------------------------| 
E|---------------------------------------------------| 
    	
fixar
fixar inscrever-se

enviado porenviado por: abelamin
cifra enviadaCorrigida por: sem correções
logo top cifrasComente
ico música do artistaMúsicas deste artista
ico curtiuCurtiu?
ico destaqueDestaque
Petaxxon Comunicação Online

Cifras.com.br - Melhor e mais completo site de cifras e tablaturas do Brasil Mais de 1 milhão de acordes de músicas cadastradas desde 2003
As informações contidas no nosso site são colaborações de seus usuários e podem conter erros, sendo assim, não nos responsabilizamos sobre nenhuma destas.

close
menos
mais
close
Cor dos acordes:

Cor da letra:

close
Alinhar acordes a direita Alinhar acordes a esquerda Alinhar acordes em baixo Alinhar acordes no topo
close
  Mostrar todos os acordes Esconder acordes muito fáceis Esconder acordes fáceis Esconder acordes intermediários
redimensionar
glossário