Cifras e Tablaturas
Exercise

Exercise

Chuck Berry Guitar Style

Cifras Cancelar Versão de Impressão
cifras

Exercise - Chuck Berry Guitar Style

fixar na tela  
Exibindo: vídeo-aula ver clipes redimensionar

Tom:

  
Part 1 

|-4/5-5-5--4/5-5-5--4/5-5-5--5--5-7--------| 
|-4/5-5-5--4/5-5-5--4/5-5-5--8--5-5--5-----| 
|------------------------------------5h6---| 
|----------------------------------------7-| 
|------------------------------------------| 
|------------------------------------------| 

Part 2 

|-8-7-5-------------------------| 
|-------8-7-5----------7--5-----| 
|-------------8-7-5----7--5h6---| 
|-------------------7---------7-| 
|-------------------------------| 
|-------------------------------| 

Part 3 

|-----5-------5----------| 
|-----5-------5----------| 
|-7b9----7b9-----7--5----| 
|----------------------7-| 
|------------------------| 
|------------------------| 

|-----5-------5------5------5-----------| 
|-----5-------5------5------5-----------| 
|-7b9----7b9-----7b9----7b9-----7p5-----| 
|------------------------------------7~-| 
|---------------------------------------| 
|---------------------------------------| 

Part 4 

|-5--5--5-------------5----5----5-| 
|-5--5--5--------5----5----5----5-| 
|-----------7p5--5h6----6----6----| 
|---------------------------------| 
|---------------------------------| 
|---------------------------------| 

|-5--5--5-----------5----5----5-| 
|-5--5--5------5----5----5----5-| 
|-----------7--5h6----6----6----| 
|-------------------------------| 
|-------------------------------| 
|-------------------------------| 


Part 5 

|-5--8--5--5----5--------| 
|-5--7--5--5h7--5-5------| 
|-----------------5h6----| 
|----------------------7-| 
|------------------------| 
|------------------------| 



Part 6 

|-8--7--5-------------------------------| 
|-8--7--5--8--7--5--------7----7--5b6---| 
|----------8--7--5--------7----7--5b6---| 
|-------------------7--5----7---------7-| 
|---------------------------------------| 
|---------------------------------------| 

Part 7 

|----------4/5-5-5--4/5-5-5--4/5-5-5--4/5-5-5-------------------| 
|-----5h7--4/5-5-5--4/5-5-5--4/5-5-5--4/5-5-5--8-7-5-5----------| 
|-5h6------------------------------------------------5h6--------| 
|--------------------------------------------------------7p5--7-| 
|-------------------------------------------------------------7-| 
|---------------------------------------------------------------| 
  

top 5 | exercise
top rock'n roll
Outras músicas do artista letras do(a) Exercise
Top cifras »Top artistas »
Petaxxon Comunicação Online
Cifras.com.br - Melhor e mais completo site de cifras e tablaturas do Brasil
Mais de 1 milhão de acordes de músicas cadastradas desde 2003
As informações contidas no nosso site são colaborações de seus usuários e podem conter erros, sendo assim, não nos responsabilizamos sobre nenhuma destas.
close
menos
mais
close
Cor dos acordes:

Cor da letra:

 

save
close
close
 
redimensionar