Cifras e Tablaturas
Exercise

Exercise

Muscle Memory Exercise

Cifras Cancelar Versão de Impressão
cifras

Exercise - Muscle Memory Exercise

fixar na tela  
Exibindo: vídeo-aula ver clipes redimensionar

Tom:

  
|---------------------------------------2---4-| 
|------------------------------2---4--1---3---| 
|---------------------2---4--1---3------------| 
|------------2---4--1---3---------------------| 
|---2---4--1---3------------------------------| 
|-1---3---------------------------------------| 

|-5---3---------------------------------------| 
|---4---2--5---3------------------------------| 
|------------4---2--5---3---------------------| 
|---------------------4---2--5---3------------| 
|------------------------------4---2--5---3---| 
|---------------------------------------4---2-| 

|---------------------------------------4---6-| 
|------------------------------4---6--3---5---| 
|---------------------4---6--3---5------------| 
|------------4---6--3---5---------------------| 
|---4---6--3---5------------------------------| 
|-3---5---------------------------------------| 

|-7---5---------------------------------------| 
|---6---4--7---5------------------------------| 
|------------6---4--7---5---------------------| 
|---------------------6---4--7---5------------| 
|------------------------------6---4--7---5---| 
|---------------------------------------6---4-| 

|---------------------------------------6---8-| 
|------------------------------6---8--5---7---| 
|---------------------6---8--5---7------------| 
|------------6---8--5---7---------------------| 
|---6---8--5---7------------------------------| 
|-5---7---------------------------------------| 

|-9---7---------------------------------------| 
|---8---6--9---7------------------------------| 
|------------8---6--9---7---------------------| 
|---------------------8---6--9---7------------| 
|------------------------------8---6--9---7---| 
|---------------------------------------8---6-| 
  

top 5 | exercise
top rock'n roll
Outras músicas do artista letras do(a) Exercise
Top cifras »Top artistas »
Petaxxon Comunicação Online
Cifras.com.br - Melhor e mais completo site de cifras e tablaturas do Brasil
Mais de 1 milhão de acordes de músicas cadastradas desde 2003
As informações contidas no nosso site são colaborações de seus usuários e podem conter erros, sendo assim, não nos responsabilizamos sobre nenhuma destas.
close
menos
mais
close
Cor dos acordes:

Cor da letra:

 

save
close
close
 
redimensionar