Cifras e Tablaturas
Exercise

Exercise

Pentatonic Scale 2 3 2

Cifras Cancelar Versão de Impressão
cifras

Exercise - Pentatonic Scale 2 3 2

fixar na tela  
Exibindo: vídeo-aula ver clipes redimensionar

Tom:

  
|------------------| 
|------------------| 
|------------------| 
|-------------5-7--| 
|-----3-5-5/7------| 
|-3-5--------------| 

|------------------------------8-10-17--| 
|-------------------------8-10----------| 
|-----------------5-7-7/9---------------| 
|-------------5-7-----------------------| 
|-----3-5-5/7---------------------------| 
|-3-5-----------------------------------| 
  

top 5 | exercise
top rock'n roll
Outras músicas do artista letras do(a) Exercise
Top cifras »Top artistas »
Petaxxon Comunicação Online
Cifras.com.br - Melhor e mais completo site de cifras e tablaturas do Brasil
Mais de 1 milhão de acordes de músicas cadastradas desde 2003
As informações contidas no nosso site são colaborações de seus usuários e podem conter erros, sendo assim, não nos responsabilizamos sobre nenhuma destas.
close
menos
mais
close
Cor dos acordes:

Cor da letra:

 

save
close
close
 
redimensionar