Cifras e Tablaturas
Exercise

Exercise

Stevie Ray Vaughan Guitar Style

Cifras Cancelar Versão de Impressão
cifras

Exercise - Stevie Ray Vaughan Guitar Style

fixar na tela  
Exibindo: vídeo-aula ver clipes redimensionar

Tom:

  

Ex 1 

|-------0-----0-----4p0---------------------------| 
|-----0---3/5---3p0-----3p0-----------------------| 
|-2b4-----------------------2b3r2-----------------| 
|---------------------------------2p0-----------2-| 
|-------------------------------------2p0---------| 
|-----------------------------------------3b5r3---| 

Ex 2 

|-----0-----0-----0-----------------------------------| 
|-------------------------/12-12h15p12h15p12h15p12h15-| 
|-2/4---4/3---3/2---2/1-------------------------------| 
|-----------------------------------------------------| 
|-----------------------------------------------------| 
|-----------------------------------------------------| 

|-------------------------------------------------------| 
|-11h14p11h14p11h14p11h14--10h13p10h13p10h13p10h13p10/9-| 
|-------------------------------------------------------| 
|-------------------------------------------------------| 
|-------------------------------------------------------| 
|-------------------------------------------------------| 

Ex 3 

|-----3-5--5/6--5h6p5p3---5---3/4---| 
|-3h5-------------------5---5-----5-| 
|-----------------------------------| 
|-----------------------------------| 
|-----------------------------------| 
|-----------------------------------| 

Ex 4 

|-------0----------------------------------------| 
|-0h3h5---5p3p0-------0--------------------------| 
|---------------0h2h4---4p2p0--------0---------7-| 
|------------------------------0h4h5---5p4-----6-| 
|------------------------------------------5/6-7-| 
|------------------------------------------------| 

Ex 5 

|-14/15-15--14/15-15--14/15-15--14/15-15--17b19r17--15b16r15-| 
|-13/14-14--13/14-14--13/14-14--13/14-14---------------------| 
|------------------------------------------------------------| 
|------------------------------------------------------------| 
|------------------------------------------------------------| 
|------------------------------------------------------------| 

|----------------------------------------------------------------| 
|-17----15-17------12-15-----------------------------------------| 
|----16---------14-------12/13-----------------------------------| 
|------------------------------14--12----------------------------| 
|-------------------------------------14p12/10----12----10b11----| 
|----------------------------------------------12----12-------12-| 

Ex 6 

|----------------------------------------------------12----------| 
|----------12-------------------15-------------------------------| 
|-12h14h15----15p14p12-12h14h15----15p14p12-12h14h15----15p14p12-| 
|----------------------------------------------------------------| 
|----------------------------------------------------------------| 
|----------------------------------------------------------------| 

|----------15----------------16-------15-------14-------12-| 
|----------------------------------------------------------| 
|-12h14h15----15p14p12---/16----16\15----15\14----14\13----| 
|----------------------------------------------------------| 
|----------------------------------------------------------| 
|----------------------------------------------------------| 
  

top 5 | exercise
top rock'n roll
Outras músicas do artista letras do(a) Exercise
Top cifras »Top artistas »
Petaxxon Comunicação Online
Cifras.com.br - Melhor e mais completo site de cifras e tablaturas do Brasil
Mais de 1 milhão de acordes de músicas cadastradas desde 2003
As informações contidas no nosso site são colaborações de seus usuários e podem conter erros, sendo assim, não nos responsabilizamos sobre nenhuma destas.
close
menos
mais
close
Cor dos acordes:

Cor da letra:

 

save
close
close
 
redimensionar