Cifras e Tablaturas
Ezra Vine

Ezra Vine

Celeste

Cifras Cancelar Versão de Impressão
cifras

Ezra Vine - Celeste

fixar na tela  
Exibindo: vídeo-aula ver clipes redimensionar

Tom:

C

ver outros tons
  
Intro (x2) 
    C                   Am                  C                   Am 
e|----3-----3-----3--|----5-----5-----5--|----3-----3-----3--|----5-----5-----5--| 
B|------1-----1------|------5-----5------|------1-----1------|------5-----5------| 
G|-------------------|-------------------|-------------------|-------------------| 
D|--------2-----2----|---------7----7----|--------2-----2----|--------7-----7----| 
A|--3----------------|--7----------------|--3----------------|--7----------------|             
E|-------------------|-------------------|-------------------|-------------------| 
    C                   Dm                  Am  
e|----3-----3-----3--|-------------------|---------------|-----------------| 
B|------1-----1------|----6-----6-----6--|------5-----5--|--------5-----5--| 
G|-------------------|------7-----7------|--------5------|----------5------| 
D|--------2-----2----|--------7-----7----|----------7----|------------7----| 
A|--3----------------|-------------------|----7----------|------7----------| 
E|-------------------|--5----------------|--5------------|----5------------| 

Verse (x2) 
    C                   Am                  C                   Am 
e|----3-----3-----3--|----5-----5-----5--|----3-----3-----3--|----5-----5-----5--| 
B|------1-----1------|------5-----5------|------1-----1------|------5-----5------| 
G|-------------------|-------------------|-------------------|-------------------| 
D|--------2-----2----|---------7----7----|--------2-----2----|--------7-----7----| 
A|--3----------------|--7----------------|--3----------------|--7----------------|             
E|-------------------|-------------------|-------------------|-------------------| 

    C                   Dm                  Am  
e|----3-----3-----3--|-------------------|---------------|-----------------| 
B|------1-----1------|----6-----6-----6--|------5-----5--|--------5-----5--| 
G|-------------------|------7-----7------|--------5------|----------5------| 
D|--------2-----2----|--------7-----7----|----------7----|------------7----| 
A|--3----------------|-------------------|----7----------|------7----------| 
E|-------------------|--5----------------|--5------------|----5------------| 

Chorus 
    C             C             C             Dm            C 
e|--0----------|--0----------|--0----------|--5----------|--0----------| 
B|--1----------|--1----------|--1----------|--6----------|--1----------| 
G|--0----------|--0----------|--0----------|--7----------|--0----------| 
D|--2----------|--2----------|--2----------|--7----------|--2----------| 
A|--3----------|--3----------|--3----------|--5----------|--3----------| 
E|--X----------|--X----------|--X----------|--5----------|--X----------| 

    C                   Am                  C                   Am 
e|----3-----3-----3--|----5-----5-----5--|----3-----3-----3--|----5-----5-----5--| 
B|------1-----1------|------5-----5------|------1-----1------|------5-----5------| 
G|-------------------|-------------------|-------------------|-------------------| 
D|--------2-----2----|---------7----7----|--------2-----2----|--------7-----7----| 
A|--3----------------|--7----------------|--3----------------|--7----------------|             
E|-------------------|-------------------|-------------------|-------------------| 

    C                   Dm                  Am  
e|----3-----3-----3--|-------------------|---------------|-----------------| 
B|------1-----1------|----6-----6-----6--|------5-----5--|--------5-----5--| 
G|-------------------|------7-----7------|--------5------|----------5------| 
D|--------2-----2----|--------7-----7----|----------7----|------------7----| 
A|--3----------------|-------------------|----7----------|------7----------| 
E|-------------------|--5----------------|--5------------|----5------------| 

Verse (x2) 
    C                   Am                  C                   Am 
e|----3-----3-----3--|----5-----5-----5--|----3-----3-----3--|----5-----5-----5--| 
B|------1-----1------|------5-----5------|------1-----1------|------5-----5------| 
G|-------------------|-------------------|-------------------|-------------------| 
D|--------2-----2----|---------7----7----|--------2-----2----|--------7-----7----| 
A|--3----------------|--7----------------|--3----------------|--7----------------|             
E|-------------------|-------------------|-------------------|-------------------| 

    C                   Dm                  Am  
e|----3-----3-----3--|-------------------|---------------|-----------------| 
B|------1-----1------|----6-----6-----6--|------5-----5--|--------5-----5--| 
G|-------------------|------7-----7------|--------5------|----------5------| 
D|--------2-----2----|--------7-----7----|----------7----|------------7----| 
A|--3----------------|-------------------|----7----------|------7----------| 
E|-------------------|--5----------------|--5------------|----5------------| 

Bridge 
    C             C             C             Dm            C 
e|--0----------|--0----------|--0----------|--5----------|--0----------| 
B|--1----------|--1----------|--1----------|--6----------|--1----------| 
G|--0----------|--0----------|--0----------|--7----------|--0----------| 
D|--2----------|--2----------|--2----------|--7----------|--2----------| 
A|--3----------|--3----------|--3----------|--5----------|--3----------| 
E|--X----------|--X----------|--X----------|--5----------|--X----------| 

Chorus (x2) 
    C                   Am                  C                   Am 
e|----3-----3-----3--|----5-----5-----5--|----3-----3-----3--|----5-----5-----5--| 
B|------1-----1------|------5-----5------|------1-----1------|------5-----5------| 
G|-------------------|-------------------|-------------------|-------------------| 
D|--------2-----2----|---------7----7----|--------2-----2----|--------7-----7----| 
A|--3----------------|--7----------------|--3----------------|--7----------------|             
E|-------------------|-------------------|-------------------|-------------------| 

    C                   Dm                  Am  
e|----3-----3-----3--|-------------------|---------------|-----------------| 
B|------1-----1------|----6-----6-----6--|------5-----5--|--------5-----5--| 
G|-------------------|------7-----7------|--------5------|----------5------| 
D|--------2-----2----|--------7-----7----|----------7----|------------7----| 
A|--3----------------|-------------------|----7----------|------7----------| 
E|-------------------|--5----------------|--5------------|----5------------| 

Outro 
    C                   Am                  C                   Am 
e|----3-----3-----3--|----5-----5-----5--|----3-----3-----3--|----5-----5-----5--| 
B|------1-----1------|------5-----5------|------1-----1------|------5-----5------| 
G|-------------------|-------------------|-------------------|-------------------| 
D|--------2-----2----|---------7----7----|--------2-----2----|--------7-----7----| 
A|--3----------------|--7----------------|--3----------------|--7----------------|             
E|-------------------|-------------------|-------------------|-------------------| 

    C                   Dm                  Am                                         (x2) 
e|----3-----3-----3--|-------------------|---------------|-----------------| 
B|------1-----1------|----6-----6-----6--|------5-----5--|--------5-----5--| 
G|-------------------|------7-----7------|--------5------|----------5------| 
D|--------2-----2----|--------7-----7----|----------7----|------------7----| 
A|--3----------------|-------------------|----7----------|------7----------| 
E|-------------------|--5----------------|--5------------|----5------------| 

    C             C             C             Dm            C 
e|--0----------|--0----------|--0----------|--5----------|--0----------| 
B|--1----------|--1----------|--1----------|--6----------|--1----------| 
G|--0----------|--0----------|--0----------|--7----------|--0----------| 
D|--2----------|--2----------|--2----------|--7----------|--2----------| 
A|--3----------|--3----------|--3----------|--5----------|--3----------| 
E|--X----------|--X----------|--X----------|--5----------|--X----------| 
 
  

cifra enviadasem correções
enviado porenviada por:aman_claudino
top 5 | ezra vine
top rock'n roll
Outras músicas do artista letras do(a) Ezra Vine
Top cifras »Top artistas »
Petaxxon Comunicação Online
Cifras.com.br - Melhor e mais completo site de cifras e tablaturas do Brasil
Mais de 1 milhão de acordes de músicas cadastradas desde 2003
As informações contidas no nosso site são colaborações de seus usuários e podem conter erros, sendo assim, não nos responsabilizamos sobre nenhuma destas.
close
menos
mais
close
Cor dos acordes:

Cor da letra:

 

save
close
close
 
redimensionar