Cifras e Tablaturas
Fabolous

Fabolous

Cant Let You Go (ver. 4)

Cifras Cancelar Versão de Impressão Print

Fabolous - Cant Let You Go (ver. 4)

Tom:

  			
This is my second ever tab. Ignore the gap between the first half and the 
second, it should be played straight through. This is exactly how it sounds 
on the record. i mean exactly. all the other tabs are complete bull. 
Standard Tuning. Just repeat it over and over again. sounds great with 
the record on behind it... 
 
Email me if its kl, [email protected] 
 
(5)  = played together   //                              
(6)  = played together   //     (7/s/9) = Slide up from 7 to 9 
 
 
E	|--------------------------------------------------| 
B	|--(5)--4/5/4---4--5-(5)-5/7--(7/s/9)--7--5--------| 
G	|--(6)---------6------(6)--------------------------| 
D	|--------------------------------------------------| 
A	|--------------------------------------------------| 
E	|--------------------------------------------------| 
 
E	|-------------------------------------------------------------------| 
B	|-------------------------------------------------------------------| 
G	|---(6)-------6---(4)----4/6/4----4--6-------(BACK TO BEGINNING)----| 
D	|---(6)---4/6-----(4)-----------6-----------------------------------| 
A	|-------------------------------------------------------------------| 
E	|-------------------------------------------------------------------| 

    	
fixar
fixar inscrever-se

enviado porenviado por: anônimo
cifra enviadaCorrigida por: sem correções
logo top cifrasComente
ico música do artistaMúsicas deste artista
ico curtiuCurtiu?
ico destaqueDestaque
Petaxxon Comunicação Online

Cifras.com.br - Melhor e mais completo site de cifras e tablaturas do Brasil Mais de 1 milhão de acordes de músicas cadastradas desde 2003
As informações contidas no nosso site são colaborações de seus usuários e podem conter erros, sendo assim, não nos responsabilizamos sobre nenhuma destas.

close
menos
mais
close
Cor dos acordes:

Cor da letra:

close
Alinhar acordes a direita Alinhar acordes a esquerda Alinhar acordes em baixo Alinhar acordes no topo
close
  Mostrar todos os acordes Esconder acordes muito fáceis Esconder acordes fáceis Esconder acordes intermediários
redimensionar
glossário