Cifras e Tablaturas
Factory 81

Factory 81

Belligerence

Cifras Cancelar Versão de Impressão Print

Factory 81 - Belligerence

Tom: C

  			Tabbed By: BlindedRhythm 
E-mail: [email protected] 
 
Tuning: Dropped-C (C G C F A D) 
 
Intro 
|-----------------------------------------------------| 
|-----------------------------------------------------| 
|-----------------------------------------------------| 
|-5h6-0-3-0-0-5h6-0-3-0-0-5h6-0-3-0-0-5h6-6-6-6/9-9-9-| 
|-5h6-0-3-0-0-5h6-0-3-0-0-5h6-0-3-0-0-5h6-6-6-6/9-9-9-| 
|-5h6-0-3-0-0-5h6-0-3-0-0-5h6-0-3-0-0-5h6-6-6-6/9-9-9-|x6 
 
Verse 
|-----------------------------------------------------| 
|-----------------------------------------------------| 
|-----------------------------------------------------| 
|-5h6-0-3-0-0-5h6-0-3-0-0-5h6-0-3-0-0-5h6-6-6-6/9-9-9-| 
|-5h6-0-3-0-0-5h6-0-3-0-0-5h6-0-3-0-0-5h6-6-6-6/9-9-9-| 
|-5h6-0-3-0-0-5h6-0-3-0-0-5h6-0-3-0-0-5h6-6-6-6/9-9-9-|x3 
  PM-------------------------------------------------| 
 
|-----------------------------------------------------| 
|-----------------------------------------------------| 
|-----------------------------------------------------| 
|-5h6-0-3-0-0-5h6-0-3-0-0-5h6-0-3-0-0-5h6-6-6-6/9-9-9-| 
|-5h6-0-3-0-0-5h6-0-3-0-0-5h6-0-3-0-0-5h6-6-6-6/9-9-9-| 
|-5h6-0-3-0-0-5h6-0-3-0-0-5h6-0-3-0-0-5h6-6-6-6/9-9-9-| 
  PM---------------------------------| 
 
Chorus 
|-----------------------------------------------------| 
|-----------------------------------------------------| 
|-----------------------------------------------------| 
|-5h6-0-3-0-0-5h6-0-3-0-0-5h6-0-3-0-0-5h6-6-6-6/9-9-9-| 
|-5h6-0-3-0-0-5h6-0-3-0-0-5h6-0-3-0-0-5h6-6-6-6/9-9-9-| 
|-5h6-0-3-0-0-5h6-0-3-0-0-5h6-0-3-0-0-5h6-6-6-6/9-9-9-|x4 
 
Repeat Verse the same. 
Play Chorus same way. 
 
Interlude 
|------------------------------------------------| 
|------------------------------------------------| 
|-5-5-5-5-5-5-5-5-5-5-5-5-5-5^-5^-5^-5^-5^-5^-5^-| 
|-3-3-3-3-3-3-3-3-3-3-3-3-3----------------------| 
|-3-3-3-3-3-3-3-3-3-3-3-3-3----------------------| 
|-3-3-3-3-3-3-3-3-3-3-3-3-3----------------------| 
 
|-----------------------------------------------------------------| 
|-----------------------------------------------------------------| 
|-----------------------------------------------------------------| 
|-5h6-0-0-0-0-0-0-5h6-0-0-0-0-0-0-5h6-0-0-0-0-0-0-5h6-0-0-0-0-0-0-| 
|-5h6-0-0-0-0-0-0-5h6-0-0-0-0-0-0-5h6-0-0-0-0-0-0-5h6-0-0-0-0-0-0-| 
|-5h6-0-0-0-0-0-0-5h6-0-0-0-0-0-0-5h6-0-0-0-0-0-0-5h6-0-0-0-0-0-0-| 
      PM---------|    PM---------|    PM---------|    PM---------| 
 
Repeat both riffs above 2 time then play this: 
|-------------------------------------| 
|-------------------------------------| 
|-5-5-5-5-5-5-5-5-5-5-5-5-5-5//\\-----| 
|-3-3-3-3-3-3-3-3-3-3-3-3-3-3//\\-0~~-| 
|-3-3-3-3-3-3-3-3-3-3-3-3-3-3//\\-0~~-| 
|-3-3-3-3-3-3-3-3-3-3-3-3-3-3//\\-0~~-| 
 
Bridge 
|--------| 
|--------| 
|--------| 
|-0~---0-| 
|-0~---0-| 
|-0~---0-| 
NOTE: The first open note is started with the volume nob turned  
down then he turns it up. 
 
|-----------------------------------------------| 
|-----------------------------------------------| 
|-------7-----------------------7-------------5-| 
|-3h5-0-7-6-5-3-0-3h5-3h5-3h5-0-7-6-5-3-0-3h5-5-| 
|-3h5-0-5-6-5-3-0-3h5-3h5-3h5-0-5-6-5-3-0-3h5-3-| 
|-3h5-0---6-5-3-0-3h5-3h5-3h5-0---6-5-3-0-3h5---|x8 
 
|-----------------------------------------------| 
|-----------------------------------------------| 
|-------7-----------------------7---------------| 
|-3h5-0-7-6-5-3-0-3h5-3h5-3h5-0-7-6-5-3-0-0-0-0-| 
|-3h5-0-5-6-5-3-0-3h5-3h5-3h5-0-5-6-5-3-0-0-0-0-| 
|-3h5-0---6-5-3-0-3h5-3h5-3h5-0---6-5-3-0-0-0-0-| 
			                  PM---| 
 
|-----------------------------------------------| 
|-----------------------------------------------| 
|-------7-----------------------7-------------5-| 
|-3h5-0-7-6-5-3-0-3h5-3h5-3h5-0-7-6-5-3-0-3h5-5-| 
|-3h5-0-5-6-5-3-0-3h5-3h5-3h5-0-5-6-5-3-0-3h5-3-| 
|-3h5-0---6-5-3-0-3h5-3h5-3h5-0---6-5-3-0-3h5---| 
 
Outro 
|------------------------------------------------| 
|------------------------------------------------| 
|-5-5-5-5-5-5-5-5-5-5-5-5-5-5^-5^-5^-5^-5^-5^-5^-| 
|-3-3-3-3-3-3-3-3-3-3-3-3-3----------------------| 
|-3-3-3-3-3-3-3-3-3-3-3-3-3----------------------| 
|-3-3-3-3-3-3-3-3-3-3-3-3-3----------------------| 
 
|-----------------------------------------------------------------| 
|-----------------------------------------------------------------| 
|-----------------------------------------------------------------| 
|-5h6-0-0-0-0-0-0-5h6-0-0-0-0-0-0-5h6-0-0-0-0-0-0-5h6-0-0-0-0-0-0-| 
|-5h6-0-0-0-0-0-0-5h6-0-0-0-0-0-0-5h6-0-0-0-0-0-0-5h6-0-0-0-0-0-0-| 
|-5h6-0-0-0-0-0-0-5h6-0-0-0-0-0-0-5h6-0-0-0-0-0-0-5h6-0-0-0-0-0-0-| 
      PM---------|    PM---------|    PM---------|    PM---------| 
 
Play both riffs 4 times this time then go into this: 
|-----------------------------------------------------------| 
|-----------------------------------------------------------| 
|-----------------------------------------------------------| 
|-5h6-0-0-0-0-0-0-5h6-0-0-0-0-0-0-5h6-0-0-0-0-0-0-3-0-3-0-3-| 
|-5h6-0-0-0-0-0-0-5h6-0-0-0-0-0-0-5h6-0-0-0-0-0-0-3-0-3-0-3-| 
|-5h6-0-0-0-0-0-0-5h6-0-0-0-0-0-0-5h6-0-0-0-0-0-0-3-0-3-0-3-|x3 
      PM---------|    PM---------|    PM---------| 
 
|-------------------------------------------------------------| 
|-------------------------------------------------------------| 
|-------------------------------------------------------------| 
|-5h6-0-0-0-0-0-0-5h6-0-0-0-0-0-0-5h6-0-0-0-0-0-0-3-0-3-0-1-0-| 
|-5h6-0-0-0-0-0-0-5h6-0-0-0-0-0-0-5h6-0-0-0-0-0-0-3-0-3-0-1-0-| 
|-5h6-0-0-0-0-0-0-5h6-0-0-0-0-0-0-5h6-0-0-0-0-0-0-3-0-3-0-1-0-| 
      PM---------|    PM---------|    PM---------|	  PM-| 
 
 
That's the song. 
 

    	
fixar
fixar inscrever-se

enviado porenviado por: anônimo
cifra enviadaCorrigida por: sem correções
logo top cifrasComente
ico música do artistaMúsicas deste artista
ico curtiuCurtiu?
ico destaqueDestaque
Petaxxon Comunicação Online

Cifras.com.br - Melhor e mais completo site de cifras e tablaturas do Brasil Mais de 1 milhão de acordes de músicas cadastradas desde 2003
As informações contidas no nosso site são colaborações de seus usuários e podem conter erros, sendo assim, não nos responsabilizamos sobre nenhuma destas.

close
menos
mais
close
Cor dos acordes:

Cor da letra:

close
Alinhar acordes a direita Alinhar acordes a esquerda Alinhar acordes em baixo Alinhar acordes no topo
close
  Mostrar todos os acordes Esconder acordes muito fáceis Esconder acordes fáceis Esconder acordes intermediários
redimensionar
glossário