Cifras e Tablaturas
Fades Away

Fades Away

Creature

Cifras Cancelar Versão de Impressão
cifras

Fades Away - Creature

fixar na tela  
Exibindo: vídeo-aula ver clipes redimensionar

Tom:

  Intro 
D|----------------|-----------|--------------|-------------|-----------------| 
A|----------------|-----------|--------------|-------------|-----------------| 
F|----------------|-----------|--------------|-------------|-----------------| 
C|----------------|-----------|--------------|-------------|-----------------| 
G|----------------|-----------|--------------|-------------|-----------------| 
C|----0-0-0-0--0-0|--0-0-0-0-0|--0-0-0-0--0-0|--0-0--0-0--0|-0-0-0-0--0-0----| 

D|-------------|-------------|-------------|--------------|------------------| 
A|-------------|-------------|-------------|--------------|------------------| 
F|-------------|-------------|-------------|--------------|------------------| 
C|-------------|-------------|-------------|--------------|------------------| 
G|-------------|-------------|-------------|--------------|------------------| 
C|----0-0-0-0-0|-0-0-0-0--0-0|--1b2-1b2-1b2|--0-0-0-0--0-0|--0-0-0-0-0-------| 

D|----------------|-------------|--------------|-----------|-----------------| 
A|----------------|-------------|--------------|-----------|-----------------| 
F|----------------|-------------|--------------|-----------|-----------------| 
C|----------------|-------------|--------------|--0-0-0-0-0|--0-0-0-0--0-0---| 
G|----------------|-------------|--------------|--0-0-0-0-0|--0-0-0-0--0-0---| 
C|----0-0-0-0--0-0|--0-0--0-0--0|--0-0-0-0--0-0|--0-0-0-0-0|--0-0-0-0--0-0---| 

D|---------------------------------------------------------------------------| 
A|---------------------------------------------------------------------------| 
F|---------------------------------------------------------------------------| 
C|---------------------------------------------------------------------------| 
G|----3b4-3b4/9v-------------------------------------------------------------| 
C|---------------------------------------------------------------------------| 

verse 1 
D|---------------------------|-----------------------------------------------| 
A|---------------------------|-----------------------------------------------| 
F|---------------------------|-----------------------------------------------|     
C|----0~--x-x-x-x--0~--x-x--0|-----------------------------------------------|     
G|----0~--x-x-x-x--0~--x-x--0|-------------9-9-9-9---------------------------| 
C|----0~--x-x-x-x--0~--x-x--0|--10-10-10-10----------------------------------| 
                                                                               (Whole verse=x2) 
D|---------------------------|-----------------------------------------------| 
A|---------------------------|-----------------------------------------------| 
F|---------------------------|-----------------------------------------------| 
C|----0~--x-x-x-x--0~--x-x--0|-----------------------------------------------| 
G|----0~--x-x-x-x--0~--x-x--0|--9-9-9-9--------------------------------------| 
C|----0~--x-x-x-x--0~--x-x--0|---------10-10-10-10---------------------------| 

Pre-Chorus/Chorus 1 
D|---------------------|----------------------------|------------------------| 
A|---------------------|----------------------------|------------------------| 
F|---------------------|----------------------------|------------------------| 
C|---------------------|----------------------------|------------------------| 
G|----13-12-12-12-12-12|--13-12-12-12-12-12-12-12-12|--13-12-12-12-12-12-----| 
C|---------------------|----------------------------|------------------------| 
                                                                               (All= x8) 
D|---------------------------------------------------------------------------| 
A|---------------------------------------------------------------------------| 
F|---------------------------------------------------------------------------| 
C|--------------12p0---------------------------------------------------------| 
G|----13-12-12p0----13p0-12p0------------------------------------------------| 
C|---------------------------------------------------------------------------| 

Turnaround 1 
D|----------------|-----------|--------------|-------------|-----------------| 
A|----------------|-----------|--------------|-------------|-----------------| 
F|----------------|-----------|--------------|-------------|-----------------| 
C|----------------|-----------|--------------|-------------|-----------------| 
G|----------------|-----------|--------------|-------------|-----------------| 
C|----0-0-0-0--0-0|--0-0-0-0-0|--0-0-0-0--0-0|--0-0--0-0--0|-0-0-0-0--0-0----| 

D|-------------|-------------|-------------|--------------|------------------| 
A|-------------|-------------|-------------|--------------|------------------| 
F|-------------|-------------|-------------|--------------|------------------| 
C|-------------|-------------|-------------|--------------|------------------| 
G|-------------|-------------|-------------|--------------|------------------| 
C|----0-0-0-0-0|-0-0-0-0--0-0|--1b2-1b2-1b2|--0-0-0-0--0-0|--0-0-0-0-0-------| 

D|----------------|-------------|--------------|-----------|-----------------| 
A|----------------|-------------|--------------|-----------|-----------------| 
F|----------------|-------------|--------------|-----------|-----------------| 
C|----------------|-------------|--------------|--0-0-0-0-0|--0-0-0-0--0-0---| 
G|----------------|-------------|--------------|--0-0-0-0-0|--0-0-0-0--0-0---| 
C|----0-0-0-0--0-0|--0-0--0-0--0|--0-0-0-0--0-0|--0-0-0-0-0|--0-0-0-0--0-0---| 

D|---------------------------------------------------------------------------| 
A|---------------------------------------------------------------------------| 
F|---------------------------------------------------------------------------| 
C|---------------------------------------------------------------------------| 
G|----3b4-3b4/9v-------------------------------------------------------------| 
C|---------------------------------------------------------------------------| 

verse 2 
D|---------------------------|-----------------------------------------------| 
A|---------------------------|-----------------------------------------------| 
F|---------------------------|-----------------------------------------------|     
C|----0~--x-x-x-x--0~--x-x--0|-----------------------------------------------|     
G|----0~--x-x-x-x--0~--x-x--0|-------------9-9-9-9---------------------------| 
C|----0~--x-x-x-x--0~--x-x--0|--10-10-10-10----------------------------------| 
                                                                               (Whole verse=x2) 
D|---------------------------|------------------------------------------------| 
A|---------------------------|------------------------------------------------| 
F|---------------------------|------------------------------------------------| 
C|----0~--x-x-x-x--0~--x-x--0|------------------------------------------------| 
G|----0~--x-x-x-x--0~--x-x--0|--9-9-9-9---------------------------------------| 
C|----0~--x-x-x-x--0~--x-x--0|---------10-10-10-10----------------------------| 

Pre-Chorus/Chorus 2 
D|---------------------|----------------------------|------------------------| 
A|---------------------|----------------------------|------------------------| 
F|---------------------|----------------------------|------------------------| 
C|---------------------|----------------------------|------------------------| 
G|----13-12-12-12-12-12|--13-12-12-12-12-12-12-12-12|--13-12-12-12-12-12-----| 
C|---------------------|----------------------------|------------------------| 
                                                                               (All= x8) 
D|---------------------------------------------------------------------------| 
A|---------------------------------------------------------------------------| 
F|---------------------------------------------------------------------------| 
C|--------------12p0---------------------------------------------------------| 
G|----13-12-12p0----13p0-12p0------------------------------------------------| 
C|---------------------------------------------------------------------------| 
                                      
Bridge 1 
D|----------------------------------------------|----------------------------| 
A|----------------------------------------------|----------------------------| 
F|----------------------------------------------|----------------------------| 
C|----------------------------------------------|----------------------------| 
G|----------------------------------------------|----------------------------| 
C|----0-0-0-0-0--0-0-0-0-0--0-0-0-0-0--0-0-0-0-0|--0-0-0-0--0-0-0-0----------| 

D|---------------------------------------------------------------------------| 
A|---------------------------------------------------------------------------| 
F|---------------------------------------------------------------------------| 
C|---------------------------------------------------------------------------| 
G|---------------------------------------------------------------------------| 
C|----0-0-0-0--0-0-0-0-------------------------------------------------------| 

Bridge 2 
D|----------------------------------------------|----------------------------| 
A|----------------------------------------------|----------------------------| 
F|----------------------------------------------|----------------------------| 
C|----0-0-0-0-0--0-0-0-0-0--0-0-0-0-0--0-0-0-0-0|--0-0-0-0--0-0-0-0--0-0-0-0-| 
G|----0-0-0-0-0--0-0-0-0-0--0-0-0-0-0--0-0-0-0-0|--0-0-0-0--0-0-0-0--0-0-0-0-| 
C|----0-0-0-0-0--0-0-0-0-0--0-0-0-0-0--0-0-0-0-0|--0-0-0-0--0-0-0-0--0-0-0-0-| 
                                                                                (All=x2) 
D|---------------------------------------------------------------------------| 
A|---------------------------------------------------------------------------| 
F|---------------------------------------------------------------------------| 
C|----0-0-0-0----------------------------------------------------------------| 
G|----0-0-0-0----------------------------------------------------------------| 
C|----0-0-0-0----------------------------------------------------------------| 
                                        *Rest*  

D|--------------------------------------|------------------------------------| 
A|--------------------------------------|------------------------------------| 
F|--------------------------------------|------------------------------------| 
C|----0-0-0-0--0-0-0-0--0-0-0-0--0-0-0-0|--0-0-0-0-0--0-0-0-0-0--0-0-0-0-0---| 
G|----0-0-0-0--0-0-0-0--0-0-0-0--0-0-0-0|--0-0-0-0-0--0-0-0-0-0--0-0-0-0-0---| 
C|----0-0-0-0--0-0-0-0--0-0-0-0--0-0-0-0|--0-0-0-0-0--0-0-0-0-0--0-0-0-0-0---| 

D|-------------|-------------------------------------------------------------| 
A|-------------|-------------------------------------------------------------| 
F|-------------|-------------------------------------------------------------| 
C|----0-0-0-0-0|--0--0--0--0-------------------------------------------------| 
G|----0-0-0-0-0|--0--0--0--0-------------------------------------------------| 
C|----0-0-0-0-0|--0--0--0--0-------------------------------------------------| 

Turn-Around 2, after vocals come back in full 
D|---------------------|----------------------------|------------------------| 
A|---------------------|----------------------------|------------------------| 
F|---------------------|----------------------------|------------------------| 
C|---------------------|----------------------------|------------------------| 
G|----13-12-12-12-12-12|--13-12-12-12-12-12-12-12-12|--13-12-12-12-12-12-----| 
C|---------------------|----------------------------|------------------------| 
                                                                                
D|---------------------------|-------------------|---------------------------| 
A|---------------------------|-------------------|---------------------------| 
F|---------------------------|-------------------|---------------------------| 
C|--------------12p0---------|-------------------|---------------------------| 
G|----13-12-12p0----13p0-12p0|--13-12-12-12-12-12|-13-12-12-12-12-12-12-12-12| 
C|---------------------------|-------------------|---------------------------| 
                                       *Rest*                                         
Final Chorus 
D|---------------------|----------------------------|------------------------| 
A|---------------------|----------------------------|------------------------| 
F|---------------------|----------------------------|------------------------| 
C|---------------------|----------------------------|------------------------| 
G|----13-12-12-12-12-12|--13-12-12-12-12-12-12-12-12|--13-12-12-12-12-12-----| 
C|---------------------|----------------------------|------------------------| 
                                                                               (All= x6) 
D|---------------------------------------------------------------------------| 
A|---------------------------------------------------------------------------| 
F|---------------------------------------------------------------------------| 
C|--------------12p0---------------------------------------------------------| 
G|----13-12-12p0----13p0-12p0------------------------------------------------| 
C|---------------------------------------------------------------------------| 

Outro 
D|----------------|-----------|--------------|-------------|-----------------| 
A|----------------|-----------|--------------|-------------|-----------------| 
F|----------------|-----------|--------------|-------------|-----------------| 
C|----------------|-----------|--------------|-------------|-----------------| 
G|----------------|-----------|--------------|-------------|-----------------| 
C|----0-0-0-0--0-0|--0-0-0-0-0|--0-0-0-0--0-0|--0-0--0-0--0|--0-0-0-0--0-0---| 

D|-------------|--------------|----------------------------------------------| 
A|-------------|--------------|----------------------------------------------| 
F|-------------|--------------|----------------------------------------------| 
C|-------------|--------------|------------------0---------------------------| 
G|-------------|--------------|--3-3-----5-5-----0---------------------------| 
C|----0-0-0-0-0|--0-0-0-0--0-0|-----5-5-----7-7--0---------------------------| 


************************************ 

| x   Dead note 
| p   Pull-off 
| b   Bend 
| /   Slide up 

************************************ 
  

top 5 | fades away
top heavy metal
Outras músicas do artista letras do(a) Fades Away
Top cifras »Top artistas »
Petaxxon Comunicação Online
Cifras.com.br - Melhor e mais completo site de cifras e tablaturas do Brasil
Mais de 1 milhão de acordes de músicas cadastradas desde 2003
As informações contidas no nosso site são colaborações de seus usuários e podem conter erros, sendo assim, não nos responsabilizamos sobre nenhuma destas.
close
menos
mais
close
Cor dos acordes:

Cor da letra:

 

save
close
close
 
redimensionar