Cifras e Tablaturas
Faith no More

Faith no More

The Gentle Art Of Making Enemies

Ano: 1995
Album : Who Cares a Lot: Greatest Hits

Cifras Cancelar Versão de Impressão Print

Faith no More - The Gentle Art Of Making Enemies

Tom:

  			GENTLE ART OF MAKING ENEMIES 
---------------------------- 
Transcribed by : Lanex13 
 
one guitar 
|--------------------------------------------------------------| 
|--------------------------------------------------------------| 
|-8-8-8-8-8-8-8-8-8-8-8-8-8-8-8-8-8-8-8-8-8-8-8-8-8-8-8-8-8----| 
|-6-6-6-6-6-6-6-6-6-6-6-6-6-6-6-6-6-6-6-6-6-6-6-6-6-6-6-6-6----| 
|-4-4-4-4-4-4-4-4-4-4-4-4-x-x-x-x-0-0-0-0-0-0-0-0-0-0-0-0-0-7\-| 
|-4-4-4-4-4-4-4-4-4-4-4-4-7-7-7--------------------------------| 
 
                * enters second guitar and bass 
|-----------------------------------------------------------------| 
|-----------------------------------------------------------------| 
|-----------------------------------------------9---9-9-9-9-9-9-9-| 
|-------------4-4---4-4-4-4-4-4---------5-------9---9-9-9-9-9-9-9-| 
|-----0-3-----0-4---4-4-4-4-4-4-------0-3-------7---7-7-7-7-7-7-7-| 
|-0-2-------2---2---2-2-2-2-2-2-0-0-2-------2-0-------------------| 
 
 
|-----------------------------------------------------------| 
|-----------------------------------------------------------| 
|-------------------------------------------------4-4-4-4-4-| 
|-------------4-4---4-4-4-4-4-4---------5---------2-2-2-2-2-| 
|-----0-3-----0-4---4-4-4-4-4-4-------0-3---------2-2-2-2-2-| 
|-0-3-------2---2---2-2-2-2-2-2-0-0-3-------0-0-0-0-0-0-0-0-| 
 
 
|------------------------|----| 
|------------------------|----| 
|------------------------|-0/-| 
|---------3-------3---3--|-/0-| 
|-----5---1-------1---1--|----| 
|-0-0-3-0-----0-3--------| 3X | 
 
x311xx  x311xx 
 
riff (0:49), one guitar 
|---------------------------------|----| 
|---------------------------------|----| 
|---------------------------------|-0/-| 
|---------------------------------|-/0-| 
|---------------------------0-----|----| 
|-0---x-1-2---x-2-----0h1h2---2p1-| 3X | 
 
enters second guitar 
|---------------------------------|----|-------------------| 
|---------------------------------|----|-------------------| 
|---------------------------------|-0/-|-------------------| 
|---------------------------------|-/0-|-------------------| 
|-3-3-3-3-3-3-3-2-----------0-----|----|-3-3-3-3-3-3-3-3---| 
|-2-2-2-2-2-2-2-2-----0h1h2---2p1-| 2X |-2-2-2-2-2-2-2-2---| 
 
|---------------------------------------------------------------------| 
|---------------------------------------------------------------------| 
|-------------4-4-4-4-4-4-4-4-4-4-4-4-2-2-2-2-------------------------| 
|---------2---4-4-4-4-4-4-4-4-4-4-4-4-2-2-2-2-5-5-5-5-5-5-5-5-5-5-5---| 
|-x-x-----0---2-2-2-2-2-2-2-2-2-2-2-2-0-0-0-0-5-5-5-5-5-5-5-5-5-5-5---| 
|-x-x-2---------------------------------------3-3-3-3-3-3-3-3-3-3-3-0-| 
 
|-------|-------------------------|----| 
|-------|-------------------------|----| 
|(7---9\)-------------------------|-0/-| 
|-------|---------------------3---|-/0-| 
|-5---7\|-2-2-2-2-2-2-2-2-2-2-1---|----| 
|-------|-0-0-0-0-0-0-0-0-0-0-----|----| 
 
|-------------------------------------------------------------------------| 
|-------------------------------------------------------------------------| 
|-4-4-4-4-4-4-4-4-4-4-4-4-4-4-4-4-4-4-4-4-4-4-4-4-4-4-4-4-4-4-4-4---------| 
|-4-4-4-4-4-4-4-4-4-4-4-4-4-4-4-4-4-4-4-4-4-4-4-4-4-4-4-4-4-4-4-4---------| 
|-2-2-2-2-2-2-2-2-2-2-2-2-0-0-0-0-x-x-x-x-x-x-x-x-x-x-x-x-x-x-x-x-5---7---| 
|---------------------------------3-3-3-3-3-3-3-3-3-3-3-3-3-3-3-3---------| 
 
|-------------------------|----| 
|-------------------------|----| 
|-------------------------|-0/-| 
|---------------------3---|-/0-| 
|-2-2-2-2-2-2-2-2-2-2-1---|----| 
|-0-0-0-0-0-0-0-0-0-0-----|----| 
 
x311xx  x311xx 
 
repeating from riff 0:48 
 
.. 
 
2:38 
|-----------------------------------------------------------------| 
|-2-2-2-2-2-2-2-2-2-2-2-2-2-2-2-2-2-2-2-2-2-2-2-2-2-2-2-2-2-2-----| 
|-4-4-4-4-4-4-4-4-4-4-4-4-4-4-4-4-4-4-4-4-4-4-4-4-4-4-4-4-4-4-----| 
|-4-4-4-4-4-4-4-4-4-4-4-4-4-4-4-4-4-4-4-4-4-4-4-4-4-4-4-4-4-4-----| 
|-2-2-2-2-2-2-2-2-2-2-2-2-0-0-0-0-x-x-x-x-x-x-x-x-x-x-x-x-x-x-5\--| 
|---------------------------------3-3-3-3-3-3-3-3-3-3-3-3-3-3-----| 
 
|-----------------------------------------------------------------|----| 
|-----------------------------------------------------------------|----| 
|-----------------------------------------------9---9-9-9-9-9-9-9-|-0/-| 
|-----0-5-----0-4---4-4-4-4-4-4---------5-------9---9-9-9-9-9-9-9-|-/0-| 
|-0-4-0-3-----0-4---4-4-4-4-4-4-------0-3-------7---7-7-7-7-7-7-7-|----| 
|-0-2-------2---2---2-2-2-2-2-2---0-2-------2-0-------------------| 7X | 
 
last time ending  
|--------------| 
|--------------| 
|----9-9-9-9---| 
|----9-9-9-9---| 
|-...7-7-7-7---| 
|--------------| 
 
guitar 3 (2:56) 
|-------------------------------------------| riff1 
|-------------------------------------------| 
|-------------------------------------------| 
|-------------------------------------------| 
|-9---9-8-8-7-7-6-6-----10---10-9-9-8-8-7-7-| 
|-------------------------------------------| 
 
riff 1 
 
|-------------------------------------------| riff2 
|-------------------------------------------| 
|-------------------------------------------| 
|-------------------------9---9-8-8-7-7-5-5-| 
|-------------------------------------------| 
|-9---9-8-8-7-7-5-5-------------------------| 
 
riff1 
 
riff2 
 
riff2 (shorted) 
 
guitar 4(or synth ?) (3:23) 
|------------------------12-13-20-16-16-20...--| 
|----------9-10----13-14-----------------------| 
|-------10------11-----------------------------| 
|-11-------------------------------------------| 
|----------------------------------------------| 
|----------------------------------------------| 
 
0/ 
/0 repeat last bar 
 

    	
fixar
fixar inscrever-se

enviado porenviado por: anônimo
cifra enviadaCorrigida por: sem correções
logo top cifrasComente
ico música do artistaMúsicas deste artista
ico curtiuCurtiu?
ico destaqueDestaque
Petaxxon Comunicação Online

Cifras.com.br - Melhor e mais completo site de cifras e tablaturas do Brasil Mais de 1 milhão de acordes de músicas cadastradas desde 2003
As informações contidas no nosso site são colaborações de seus usuários e podem conter erros, sendo assim, não nos responsabilizamos sobre nenhuma destas.

close
menos
mais
close
Cor dos acordes:

Cor da letra:

close
Alinhar acordes a direita Alinhar acordes a esquerda Alinhar acordes em baixo Alinhar acordes no topo
close
  Mostrar todos os acordes Esconder acordes muito fáceis Esconder acordes fáceis Esconder acordes intermediários
redimensionar
glossário