Cifras e Tablaturas
Falling In Reverse

Falling In Reverse

Coming Home

Cifras Cancelar Versão de Impressão

Falling In Reverse - Coming Home

Tom:

  			Intro (Guitar 1) 
D|-----------------------------------------------------------| 
A|-----------------------------------------------------------| 
F|--11--7--11-11-----14--12--11--11--7--16--11-----14--12-11-| 
C|--------------11----------------------------11-------------| 
G|-----------------------------------------------------------| 
C|-----------------------------------------------------------| 


Intro (Guitar 2) 
D|-----------------------------------------------------------| 
A|-----------------------------------------------------------| 
F|-----------------------------------------------------------| 
C|-----------------------------------------------------------| 
G|-2(4x)--11(4x)--6(4x)--9(4x)---2(4x)--11(4x)--6(4x)--9(4x)-| 
C|-2(4x)--11(4x)--6(4x)--9(4x)---2(4x)--11(4x)--6(4x)--9(4x)-| 


verse 1 {Part 1} (Guitar 1) 
D|--------------------------------------| 
A|--------------------------------------| 
F|--------------------------------------| 
C|--------------------------------------| 
G|2--------6--------2--------6--------2-| 
C|2--------6--------2--------6--------2-| 

verse 1 {Part 1} (Guitar 2) 
D|--------------------------------------| 
A|--------------------------------------| 
F|--------------------------------------| 
C|--------------------------------------| 
G|2--------6--------2--------6--------2-| 
C|2--------6--------2--------6--------2-| 


verse 1 {Part 2} (Guitar 1) 
D|9-9-9-9-9-8-8-8-8-9-9-9-9-9-8-8-8-8-8-| 
A|-8-8-8-8-8-8-8-8-8-8-8-8-8-8-8-8-8-8--| 
F|--------------------------------------| 
C|--------------------------------------| 
G|--------------------------------------| 
C|--------------------------------------| 


verse 1 {Part 2} (Guitar 2) 
D|--------------------------------------| 
A|--------------------------------------| 
F|--------------------------------------| 
C|--------------------------------------| 
G|2--------6--------2--------6--------2-| 
C|2--------6--------2--------6--------2-| 


Pre-Chrous (Guitar 1) *palm muted* 
D|---------------------------------------| 
A|---------------------------------------| 
F|---------------------------------------| 
C|---------------------------------------| 
G|1/2/----5/6/------8/9/----10/11/12/-13-| 
C|1/2/----5/6/------8/9/----10/11/12/-13-|/tab 


Pre-Chrous (Guitar 2) *palm muted* 
D|---------------------------------------| 
A|---------------------------------------| 
F|---------------------------------------| 
C|---------------------------------------| 
G|1/2/----5/6/------8/9/----10/11/12/-13-| 
C|1/2/----5/6/------8/9/----10/11/12/-13-|/tab 


Chorus (Guitar 1) 
D|-----------------------------------------------------------| 
A|-----------------------------------------------------------| 
F|-----------------------------------------------------------| 
C|-----------------------------------------------------------| 
G|-2(4x)--11(4x)--6(4x)--9(4x)---2(4x)--11(4x)--6(4x)--9(4x)-| 
C|-2(4x)--11(4x)--6(4x)--9(4x)---2(4x)--11(4x)--6(4x)--9(4x)- 


Chorus (Guitar 2) 
D|-----------------------------------------------------------| 
A|-----------------------------------------------------------| 
F|-----------------------------------------------------------| 
C|-----------------------------------------------------------| 
G|-2(4x)--11(4x)--6(4x)--9(4x)---2(4x)--11(4x)--6(4x)--9(4x)-| 
C|-2(4x)--11(4x)--6(4x)--9(4x)---2(4x)--11(4x)--6(4x)--9(4x)-| 


verse 2 {Part 1} (Guitar 1) 
D|--------------------------------------| 
A|--------------------------------------| 
F|--------------------------------------| 
C|--------------------------------------| 
G|2--------6--------2--------6--------2-| 
C|2--------6--------2--------6--------2-| 

verse 2 {Part 1} (Guitar 2) 
D|--------------------------------------| 
A|--------------------------------------| 
F|--------------------------------------| 
C|--------------------------------------| 
G|2--------6--------2--------6--------2-| 
C|2--------6--------2--------6--------2-| 


verse 2 {Part 2} (Guitar 1) 
D|9-9-9-9-9-8-8-8-8-9-9-9-9-9-8-8-8-8-8-| 
A|-8-8-8-8-8-8-8-8-8-8-8-8-8-8-8-8-8-8--| 
F|--------------------------------------| 
C|--------------------------------------| 
G|--------------------------------------| 
C|--------------------------------------| 


verse 2 {Part 2} (Guitar 2) 
D|--------------------------------------| 
A|--------------------------------------| 
F|--------------------------------------| 
C|--------------------------------------| 
G|2--------6--------2--------6--------2-| 
C|2--------6--------2--------6--------2-| 


Pre-Chrous 2 (Guitar 1) *palm muted* 
D|--------------------------------------| 
A|--------------------------------------| 
F|--------------------------------------| 
C|--------------------------------------| 
G|1/2/----5/6/------8/9/----10/11/12/-13| 
C|1/2/----5/6/------8/9/----10/11/12/-13| 


Pre-Chrous 2 (Guitar 2) *palm muted* 
D|--------------------------------------| 
A|--------------------------------------| 
F|--------------------------------------| 
C|--------------------------------------| 
G|1/2/----5/6/------8/9/----10/11/12/-13| 
C|1/2/----5/6/------8/9/----10/11/12/-13| 


Chorus (Guitar 1) 
D|-----------------------------------------------------------| 
A|-----------------------------------------------------------| 
F|-----------------------------------------------------------| 
C|-----------------------------------------------------------| 
G|-2(4x)--11(4x)--6(4x)--9(4x)---2(4x)--11(4x)--6(4x)--9(4x)-| 
C|-2(4x)--11(4x)--6(4x)--9(4x)---2(4x)--11(4x)--6(4x)--9(4x)-| 


Chorus (Guitar 2) 
D|-----------------------------------------------------------| 
A|-----------------------------------------------------------| 
F|-----------------------------------------------------------| 
C|-----------------------------------------------------------| 
G|-2(4x)--11(4x)--6(4x)--9(4x)---2(4x)--11(4x)--6(4x)--9(4x)-| 
C|-2(4x)--11(4x)--6(4x)--9(4x)---2(4x)--11(4x)--6(4x)--9(4x)-| 


Bridge (Guitar 1) 
D|-8-8-8-8~--9-9-9-9~--9-9-9-9~--10-10-10-10/10-10-11-11--12-\13-13~-| 
A|--8-8-8-----8-8-8-----9-9-9------9--9--9----10-10\-11-11\-12-12----| 
F|-------------------------------------------------------------------| 
C|-------------------------------------------------------------------| 
G|-------------------------------------------------------------------| 
C|-------------------------------------------------------------------| 


Bridge (Guitar 2) 
D|-------------------------------------------------------------------| 
A|-------------------------------------------------------------------| 
F|-------------------------------------------------------------------| 
C|-------------------------------------------------------------------| 
G|2(5x)~-----6(5x)~----9(5x)~-10-10-10-10-11-11-11-11-12-12-12-13~---| 
C|2(5x)~-----6(5x)~----9(5x)~-10-10-10-10-11-11-11-11-12-12-12-13~---| 


Interlude (Guitar 1) "that you make it through" 
D|-----------------------------------------------------------| 
A|-----------------------------------------------------------| 
F|--11--7--11-11-----14--12--11--11--7--16--11-----14--12-11-| 
C|--------------11----------------------------11-------------| 
G|-----------------------------------------------------------| 
C|-----------------------------------------------------------| 



Interlude (Guitar 2) "that you make it through" 
D|-----------------------------------------------------------| 
A|-----------------------------------------------------------| 
F|-----------------------------------------------------------| 
C|----------------------------------------------------------2| 
G|2--------6--------2--------6--------2--------2--------6---2| 
C|2--------6--------2--------6--------2--------2--------6---2| 


Outro {Part 1} (Guitar 1) 
D|-----------------------------------------------------------| 
A|-----------------------------------------------------------| 
F|-----------------------------------------------------------| 
C|-----------------------------------------------------------| 
G|-2(4x)--11(4x)--6(4x)--9(4x)---2(4x)--11(4x)--6(4x)--9(4x)-| 
C|-2(4x)--11(4x)--6(4x)--9(4x)---2(4x)--11(4x)--6(4x)--9(4x)-| 


Outro {Part 1} (Guitar 2) 
D|-----------------------------------------------------------| 
A|-----------------------------------------------------------| 
F|-----------------------------------------------------------| 
C|-----------------------------------------------------------| 
G|-2(4x)--11(4x)--6(4x)--9(4x)---2(4x)--11(4x)--6(4x)--9(4x)-| 
C|-2(4x)--11(4x)--6(4x)--9(4x)---2(4x)--11(4x)--6(4x)--9(4x)-| 


Outro {Part 2} (Guitar 1) 
D|-----------------------------------------------------------| 
A|-----------------------------------------------------------| 
F|--11--7--11-11-----14--12--11--11--7--16--11-----14--12-11~| 
C|--------------11----------------------------11-------------| 
G|-----------------------------------------------------------| 
C|-----------------------------------------------------------| 


Outro {Part 2} (Guitar 2) 
D|-----------------------------------------------------------| 
A|-----------------------------------------------------------| 
F|-----------------------------------------------------------| 
C|-----------------------------------------------------------| 
G|-2(4x)--11(4x)--6(4x)--9(4x)--2(4x)--11(4x)--6(4x)--9(4x)2~| 
C|-2(4x)--11(4x)--6(4x)--9(4x)---2(4x)--11(4x)-6(4x)--9(4x)2~| 
    	
fixar
fixar inscrever-se

enviado porenviado por: IronPower4Ever
cifra enviadaCorrigida por: sem correções
logo top cifrasComente
ico música do artistaMúsicas deste artista
ico curtiuCurtiu?
ico destaqueDestaque
Petaxxon Comunicação Online

Cifras.com.br - Melhor e mais completo site de cifras e tablaturas do Brasil Mais de 1 milhão de acordes de músicas cadastradas desde 2003
As informações contidas no nosso site são colaborações de seus usuários e podem conter erros, sendo assim, não nos responsabilizamos sobre nenhuma destas.

close
menos
mais
close
Cor dos acordes:

Cor da letra:

close
Alinhar acordes a direita Alinhar acordes a esquerda Alinhar acordes em baixo Alinhar acordes no topo
close
  Mostrar todos os acordes Esconder acordes muito fáceis Esconder acordes fáceis Esconder acordes intermediários
redimensionar
glossário