Cifras e Tablaturas
Far From Alaska

Far From Alaska

Relentless Game

Cifras Cancelar Versão de Impressão
cifras

Far From Alaska - Relentless Game

fixar na tela  
Exibindo: vídeo-aula ver clipes redimensionar

Tom:

          
       
E|--X----------------------------------------| 
B|-------------------------------------------| 
G|-----4-h5--5--------------4-h5--5----------| 
D|-----3-----3------3h5-----3-----3--5p3-----| 
A|-----5--------3h5-----5---5------------5---| 
E|-------------------------------------------| 

Spent my living 

Feeling blue 

Full of boundaries 

Like I was tought to 

Spent my living 

On my own 

Feeling sorry 

For what I've become 


E|---------------------------------| 
B|---------------------------------| 
G|---------------------------------| 
D|---------------------------------| 
A|---------------------------------| 
E|--0-0--12p10-10p0h10-12-12b13----| 


E|---------------------------------| 
B|---------------------------------| 
G|---------------------------------| 
D|---------------------------------| 
A|---------------------------------| 
E|--0-0--12p10-10p0h10--5-3b4------| 

E|---------------------------------| 
B|---------------------------------| 
G|---------------------------------| 
D|---------------------------------| 
A|---------------------------------| 
E|--0-0--12p10-10p0h10-12-12b13----| 


E|---------------------------------| 
B|---------------------------------| 
G|---------------------------------| 
D|-------------------------x-x-----| 
A|---------------------------------| 
E|--0-0--12p10-10p0h10--12---------| 


E|--------------------------|----------------------------| 
B|--------------------------|----------------------------| 
G|---------------------3----|----------------------------| 
D|-------5p3---3---3h5---5--|------5p3---3---------------| 
A|-----------5---5----------|----------5-----------------| 
E|--5-5---------------------|--5-5----------5-4-3-2-1-0--|                                                                                                                                                                                                                                                                                                                                                                                                                                                                                                                                                                                                                                                                                                                                                                                                                                                                                                                                                                                                                                                                                                                                                                                                                                                                                                                                                                                                                                                                                                                                                                                                                                                                                                                                                                                                                                                                                                                                                                                                                                                                                                                                                                                                                                                                                                                                                                                                                                                                                                                                                                                                                                                                                                                                                                                                                                                                                                                                                                                                                                                                                                                                                                                                                                                                                                                                                                                                                                                                                                                                                                                                                                                                                                                                                                                                                                                                                                                                                                                                                                                                                                                                                                                                                                                                                                                                                                                                                                                                                                                                                                                                                                                                                                                                                                                                                                                                                                                                                                                                                                                                                                                                                                                                                                                                                                                                                                                                                                

E|---------------------------------| 
B|---------------------------------| 
G|---------------------------------| 
D|---------------------------------| 
A|---------------------------------| 
E|--0-0--12p10-10p0h10-12-12b13----| 


E|---------------------------------| 
B|---------------------------------| 
G|---------------------------------| 
D|---------------------------------| 
A|---------------------------------| 
E|--0-0--12p10-10p0h10--5-3b4------| 


Ritmo por trás da próxima parte 

E|----------------------| 
B|----------------------| 
G|----------------------| 
D|----------------------| 
A|------5p3---3---3h5/--| 
E|--0-0-----5---5-------| 

Catatonic 

White blank page 

No aim, no goal 

Walking in a maze 


E|---------| 
B|---------| 
G|---7p5---| 
D|---------| 
A|---------| 
E|---------| 

E|----------------------| 
B|----------------------| 
G|----------------------| 
D|----------------------| 
A|------5p3---3---3h5/--| 
E|--0-0-----5---5-------| 

And I kept going 

Like a fool 

Faking cool lines 

Like I had a clue 

E|----------------------------| 
B|----------------------------| 
G|----------------------------| 
D|----------------------------| 
A|------------5p3---3---3h5/--| 
E|--3-5---0-0-----5---5-------| 

Now I'm walking 

In my own shoes 

Down the path that 

Life's forced me to 


E|---------| 
B|---------| 
G|---7p5---| 
D|---------| 
A|---------| 
E|---------| 

E|----------------------| 
B|----------------------| 
G|----------------------| 
D|----------------------| 
A|------5p3---3---3h5/--| 
E|--0-0-----5---5-------| 


Then I could see 

My future-self 

Caring no more 

'Bout this living hell 


E|----------------------| 
B|----------------------| 
G|---------------7~~~---| 
D|----------------------| 
A|--3-3-3-3-5-5---------| 
E|----------------------| 

E|----------------------| 
B|----------------------| 
G|----------------------| 
D|----------------------| 
A|------5p3---3---3h5/--| 
E|--0-0-----5---5-------| 



E|-----| 
B|-----| 
G|-----| 
D|-----| 
A|--5--| 
E|--5--| 

Break me, take me 

Relentless game 

Cause I'm not the one 

I was before and I claim to 

Live and die among the rest 

Break me, take me 

Relentless game 

Off the chains I go 

                          E|-----| 
                          B|-----| 
                          G|-----| 
                          D|-----| 
                          A|--1--| 
                          E|--1--| 

Release my soul and drown myself 

                    E|-----| 
                    B|-----| 
                    G|-----| 
                    D|-----| 
                    A|--3--| 
                    E|--3--| 
In tides of what is truly new 


E|---------------------------------| 
B|---------------------------------| 
G|---------------------------------| 
D|---------------------------------| 
A|---------------------------------| 
E|--0-0--12p10-10p0h10-12-12b13----| 


E|---------------------------------| 
B|---------------------------------| 
G|---------------------------------| 
D|---------------------------------| 
A|---------------------------------| 
E|--0-0--12p10-10p0h10--5-3b4------| 

E|---------------------------------| 
B|---------------------------------| 
G|---------------------------------| 
D|---------------------------------| 
A|---------------------------------| 
E|--0-0--12p10-10p0h10-12-12b13----| 

E|--------------------------------------| 
B|--------------------------------------| 
G|--------------------------------------| 
D|--------------------------------------| 
A|--------------------------------------| 
E|--0-0--12p10-10p0h10--5-4-3-2-1-0-----| 


E|--10~~---12~~---10~~--12~~--10~~--12~~--10~~---| 
B|--11~~---13~~---10~~--11~~--11~~--13~~--10~~---| 
G|--12~~---14~~---10~~--12~~--12~~--14~~--10~~---| 
D|-----------------------------------------------| 
A|-----------------------------------------------| 
E|-----------------------------------------------| 

The world's weight on my back 

And I'm not going back home 

In my journey I craft 

The love, the joys of tomorrow (I'm not going back home) 


E|-----| 
B|-----| 
G|-----| 
D|-----| 
A|--5--| 
E|--5--| 

Break me, take me 

Relentless game 

Cause I'm not the one 

I was before and I claim to 

Live and die among the rest 

Break me, take me 

Relentless game 

Off the chains I go 

                          E|-----| 
                          B|-----| 
                          G|-----| 
                          D|-----| 
                          A|--1--| 
                          E|--1--| 

Release my soul and drown myself 

                    E|-----| 
                    B|-----| 
                    G|-----| 
                    D|-----| 
                    A|--3--| 
                    E|--3--| 
In tides of what is truly new 


Base para o solo 

E|-------------------| 
B|-------------------| 
G|-------------------| 
D|-------------------| 
A|--5-5-5-5-5-5-8-3--| 
E|--5-5-5-5-5-5-8-3--| 


Solo 

E|-------------------------------------------| 
B|-------------------------------------------| 
G|--0-3\2-0--3/5-3~~--5p3-5p3-5p3-5p3-5-5b7--| 
D|-------------------------------------------| 
A|-------------------------------------------| 
E|-------------------------------------------| 

E|-------------------------------------------| 
B|-------------------------------------------| 
G|--0-3\2-0--3/5-3~~--3p0-3p0-3p0-3p0-4b5----| 
D|-------------------------------------------| 
A|-------------------------------------------| 
E|-------------------------------------------| 

E|-------------------------------------------| 
B|-------------------------------------------| 
G|--0-3\2-0--3/5-3~~--5p3-5p3-5p3-5p3-5-5b7--| 
D|-------------------------------------------| 
A|-------------------------------------------| 
E|-------------------------------------------| 

E|-------------------------------------------| 
B|-------------------------------------------| 
G|--9/12-9-----------------------------------| 
D|----------9/12-9----7b8h7-5~~~~------------| 
A|-------------------------------------------| 
E|-------------------------------------------| 


Base até o final da música 
E|-------------------| 
B|-------------------| 
G|-------------------| 
D|-------------------| 
A|--5-5-5-5-5-5-8-3--| 
E|--5-5-5-5-5-5-8-3--| 

Spent my living 

Feeling blue 


E|---10-8--6/8\6---------| 
B|---------------8~~~~---| 
G|-----------------------| 
D|-----------------------| 
A|-----------------------| 
E|-----------------------| 

Full of boundaries 

Like I was tought to 

E|-------------| 
B|--8\6--------| 
G|------7\5b7--| 
D|-------------| 
A|-------------| 
E|-------------| 

Spent my living 

On my own 

E|--9b10-9b10-9b10~~-| 
B|-------------------| 
G|-------------------| 
D|-------------------| 
A|-------------------| 
E|-------------------| 

Feeling sorry 

For what I've become 

E|--15----15----15----15----15--14/15-14/15---| 
B|-----15----15----15----15-----14/15-14/15---| 
G|--------------------------------------------| 
D|--------------------------------------------| 
A|--------------------------------------------| 
E|--------------------------------------------| 

E|---14/15-14/15---| 
B|---14/15-14/15---| 
G|-----------------| 
D|-----------------| 
A|-----------------| 
E|-----------------| 
  

top 5 | far from alaska
top rock'n roll
Outras músicas do artista letras do(a) Far From Alaska
3.
Mama
Top cifras »Top artistas »
Petaxxon Comunicação Online
Cifras.com.br - Melhor e mais completo site de cifras e tablaturas do Brasil
Mais de 1 milhão de acordes de músicas cadastradas desde 2003
As informações contidas no nosso site são colaborações de seus usuários e podem conter erros, sendo assim, não nos responsabilizamos sobre nenhuma destas.
close
menos
mais
close
Cor dos acordes:

Cor da letra:

 

save
close
close
 
redimensionar