Cifras e Tablaturas
Feed The Rhino
Cifras Cancelar Versão de Impressão Print

Feed The Rhino - Tides

Tom: F

  			
1:39 INTRO (increase volume with each repeat) 

D|--------------------------------------------------------------------------------| 
A|--------------------------------------------------------------------------------| 
F|---------7-----7--7--10-10--7b--5--5--7-----------7-----7-----------7-----7-----| 
C|---------x-----x--x---x--x--x---x--x--x-----------x-----x-----------x-----x-----| 
G|---5--5--5--5--5--5---8--8--5b--3--5--5--5--5--5--5--5--5--5--5--5--5--5--5-----| x3 
C|--------------------------------------------------------------------------------| 

1:59 

D|--------------------------------------------------------------------------------| 
A|--------------------------------------------------------------------------------| 
F|---------7-----7--7--10-10--7b--5--5--7--7--7--7--7--7--7--7--7--7--7--7--------| 
C|---------x-----x--x---x--x--x---x--x--x--x--x--x--x--x--x--x--x--x--x--x--12\---| 
G|---5--5--5--5--5--5---8--8--5b--3--3--5--5--5--5--5--5--5--5--5--5--5--5--12\---| 
C|--------------------------------------------------------------------------12\---| 

2:07 MAIN RIFF 

HEAVY DISTORTION 

D|------------------------------------------------------------| 
A|------------------------------------------------------------| 
F|-----7--7--7-10-10--7b---5--5--7b---------------------------| 
C|-0---x--x--x--x--x--x----x--x--x----3---3-3-3-4---4-4-4-----| 
G|-0---5--5--5--8--8--5b---3--3--5b---3---3-3-3-4---4-4-4-----| 
C|-0----------------------------------3---3-3-3-4---4-4-4-----| 

D|------------------------------------------------------------| 
A|------------------------------------------------------------| 
F|-----7--7--7-10-10--7b---5--5--7b---------------------------| 
C|-0---x--x--x--x--x--x----x--x--x----------------------------| 
G|-0---5--5--5--8--8--5b---3--3--5b-----5---------5-3-3-2-2-3-| 
C|-0----------------------------------7---7-6-5-0---3-3-2-2-3-| 

D|------------------------------------------------------------| 
A|------------------------------------------------------------| 
F|-----7--7--7-10-10--7b---5--5--7b---------------------------| 
C|-0---x--x--x--x--x--x----x--x--x----3---3-3-3-4---4-12\-----| 
G|-0---5--5--5--8--8--5b---3--3--5b---3---3-3-3-4---4-12\-----| 
C|-0----------------------------------3---3-3-3-4---4-12\-----| 

D|------------------------------------------------------------| 
A|------------------------------------------------------------| 
F|-----7--7--7-10-10--7b---5--5--7b---------------------------| 
C|-0---x--x--x--x--x--x----x--x--x----------------------------| 
G|-0---5--5--5--8--8--5b---3--3--5b-----5---------5-3-3-2-2-3-| 
C|-0----------------------------------7---7-6-5-0---3-3-2-2-3-| 

2:34 BREAKDOWN 

D|------------------------------------| 
A|------------------------------------| 
F|-----10b-10b------10b-10b-----------| 
C|-0----x---x---0----x---x-----6---6--| 
G|-0----8b--8b--0----8b--8b--666-666--| x2 
C|-0------------0------------666-666--| 
                             ..  .. 

D|----------------------------------------| 
A|----------------------------------------| 
F|-------10b-10b--------10b-10b-----------| 
C|-0-0-0--x---x---0-0-0--x---x-----6---6--| 
G|-0-0-0--8b--8b--0-0-0--8b--8b--666-666--| 
C|-0-0-0----------0-0-0----------666-666--| 
                                 ..  .. 

D|-------------------------------------------| 
A|-------------------------------------------| 
F|-------10b-10b--------10-10-10-10-10-10-10-| 
C|-0-0-0--x---x---0-0-0--x--x--x--x--x--x--x-| 
G|-0-0-0--8b--8b--0-0-0--8--8--8--8--8--8--8-| 
C|-0-0-0----------0-0-0----------------------| 

2:52 BRIDGE 

You can just play this part on the F string alone, but I think it sounds better as chords. 

D|------------------------------------| 
A|------------------------------------| 
F|---5/7--7\5--7\5--10\7--7\5--7------| 
C|------------------------------------| 
G|---3/5--5\3--7\5--8 \5--5\7--5------| 
C|------------------------------------| 

D|------------------------------------| 
A|------------------------------------| 
F|---5/7--7\5--7\5--10\7--7b--7b------| 
C|------------------------------------| 
G|---3/5--5\3--7\5--8 \5--5b--5-b-----| 
C|------------------------------------| 

D|--------------------------------10-10-10----------12-12-12b--12b---| 
A|-----------------------------------------10-10-10------------------| 
F|---5/7--7\5--7\5--10\7--7\5--7-------------------------------------| 
C|-------------------------------------------------------------------| 
G|---3/5--5\3--7\5--8 \5--5\7--5-------------------------------------| 
C|-------------------------------------------------------------------| 

D|------------------------------------| 
A|------------------------------------| 
F|---5/7--7\5--7\5--10\7--7\5--7------| 
C|------------------------------------| 
G|---3/5--5\3--7\5--8 \5--5\7--5------| 
C|------------------------------------| 

D|------------------------------------| 
A|------------------------------------| 
F|---5/7--7\5--7\5--10\7--7b--7b------| 
C|------------------------------------| 
G|---3/5--5\3--7\5--8 \5--5b--5-b-----| 
C|------------------------------------| 

D|--------------------------------10-10-10----------12-12-12-12-12---| 
A|-----------------------------------------10-10-10------------------| 
F|---5/7--7\5--7\5--10\7--7\5--7-------------------------------------| 
C|-------------------------------------------------------------------| 
G|---3/5--5\3--7\5--8 \5--5\7--5-------------------------------------| 
C|-------------------------------------------------------------------| 

3:17 

Back to MAIN RIFF 

D|------------------------------------------------------------| 
A|------------------------------------------------------------| 
F|-----7--7--7-10-10--7b---5--5--7b---------------------------| 
C|-0---x--x--x--x--x--x----x--x--x----3---3-3-3-4---4-4-4-----| 
G|-0---5--5--5--8--8--5b---3--3--5b---3---3-3-3-4---4-4-4-----| 
C|-0----------------------------------3---3-3-3-4---4-4-4-----| 

D|------------------------------------------------------------| 
A|------------------------------------------------------------| 
F|-----7--7--7-10-10--7b---5--5--7b---------------------------| 
C|-0---x--x--x--x--x--x----x--x--x----------------------------| 
G|-0---5--5--5--8--8--5b---3--3--5b-----5---------5-3-3-2-2-3-| 
C|-0----------------------------------7---7-6-5-0---3-3-2-2-3-| 

D|------------------------------------------------------------| 
A|------------------------------------------------------------| 
F|-----7--7--7-10-10--7b---5--5--7b---------------------------| 
C|-0---x--x--x--x--x--x----x--x--x----3---3-3-3-4---4-12\-----| 
G|-0---5--5--5--8--8--5b---3--3--5b---3---3-3-3-4---4-12\-----| 
C|-0----------------------------------3---3-3-3-4---4-12\-----| 

Slow playing right down to end 

D|----------------------------------------------------------------------------------| 
A|----------------------------------------------------------------------------------| 
F|-----7--7--7-10-10--7b---5--5--7b-------------------------------------------------| 
C|-0---x--x--x--x--x--x----x--x--x------------------------------------------0~~~~~~-| 
G|-0---5--5--5--8--8--5b---3--3--5b------5--------------5--3--3--2--2---3---0~~~~~~-| 
C|-0----------------------------------7-----7--6--5--0-----3--3--2--2---3---0~~~~~~-|  
    	
fixar
fixar inscrever-se

enviado porenviado por: educastilho
cifra enviadaCorrigida por: sem correções
logo top cifrasComente
ico música do artistaMúsicas deste artista
ico curtiuCurtiu?
ico destaqueDestaque
Petaxxon Comunicação Online

Cifras.com.br - Melhor e mais completo site de cifras e tablaturas do Brasil Mais de 1 milhão de acordes de músicas cadastradas desde 2003
As informações contidas no nosso site são colaborações de seus usuários e podem conter erros, sendo assim, não nos responsabilizamos sobre nenhuma destas.

close
menos
mais
close
Cor dos acordes:

Cor da letra:

close
Alinhar acordes a direita Alinhar acordes a esquerda Alinhar acordes em baixo Alinhar acordes no topo
close
  Mostrar todos os acordes Esconder acordes muito fáceis Esconder acordes fáceis Esconder acordes intermediários
redimensionar
glossário