Cifras e Tablaturas
Fernanda Brum

Fernanda Brum

Redenção

Ano: 2006
Album : Profetizando às Nacões

Cifras Cancelar Versão de Impressão Print

Fernanda Brum - Redenção

Tom: G#m

  • 0:00 / 0:00
E)---------------------------------------------12----------------------------  
B)---------------------------------------------------------------------------  
G)---11/13-13-13—13/14~~-------------9-11-11b--------(11b-16t-11r-11r~~)-----  
D)------------------------7/9h11--------------------------------------------- 
A)---------------------------------------------------------------------------  
E)---------------------------------------------------------------------------  


E)-----------------------------------------------------------------------------------  
B)--7/9h11--11-11-11—11/12-12~~--9/11-9--9/12-11-------------------------------------  
G)----------------------------------------------------13/15-13-14-13----------------- 
D)----------------------------------------------------------------------14/16-------- 
A)-----------------------------------------------------------------------------------  
E)-----------------------------------------------------------------------------------  


E)------------------------------------------------------------------------18--------- 
B)------------------------------------------------------------17----18b---------18b--  
G)----------------------14-16-----------------16-18-19------------------------------- 
D)------------14-16-------------16-18-19---------------------------------------------  
A)--14-17----------------------------------------------------------------------------  
E)-----------------------------------------------------------------------------------  

enviado porenviado por: ELEILSON
cifra enviadaCorrigida por: sem correções
logo top cifrasComente
ico música do artistaMúsicas deste artista
ico curtiuCurtiu?
ico destaqueDestaque
Petaxxon Comunicação Online

Cifras.com.br - Melhor e mais completo site de cifras e tablaturas do Brasil Mais de 1 milhão de acordes de músicas cadastradas desde 2003
As informações contidas no nosso site são colaborações de seus usuários e podem conter erros, sendo assim, não nos responsabilizamos sobre nenhuma destas.

close
menos
mais
close
Cor dos acordes:

Cor da letra:

close
Alinhar acordes a direita Alinhar acordes a esquerda Alinhar acordes em baixo Alinhar acordes no topo
close
  Mostrar todos os acordes Esconder acordes muito fáceis Esconder acordes fáceis Esconder acordes intermediários
redimensionar
glossário