Cifras e Tablaturas
Fernandinho

Fernandinho

A Alegria Do Senhor Tablatura Verificada

Compositor : (Fernandinho)

Cifras Cancelar Versão de Impressão
cifras

Fernandinho - A Alegria Do Senhor

fixar na tela  
Exibindo: vídeo-aula ver clipes redimensionar
  
Guitarra 1:  

Intro:  

e|--------------------------------------------------|  
B|--------------------------------------------------|  
G|---5-5-5-3--------5-5-5-3-------------------------|  
D|---5-5-5-3--------5-5-5-3-------------------------|  
A|------------5-5------------5-5--0-1-0-1-0-1-0-1-0-|  
E|------------3-3------------3-3--0-1-0-1-0-1-0-1-0-|  

verso 1: G5 C5 G5 C5 D5 Eb5 D5 Eb5 D5 Eb5 D5  

Refrão: G5 Bb5 Eb5 C5   

e|------------------------------------------------------------------|  
B|------------------------------------------------------------------|  
G|------------------------------------------------------------------|  
D|----------------------------------8-8-8-8-8-8-8-8-5-5-5-5---------|  
A|--5-5-5-5-5-5-5-5-8-8-8-8-8-8-8-8-6-6-6-6-6-6-6-6-3-3-3-3-5-3-----|  
E|--3-3-3-3-3-3-3-3-6-6-6-6-6-6-6-6-----------------------------6-5-|  

e|---------------------------------------------------------------------|  
B|---------------------------------------------------------------------|  
G|---------------------------------------------------------------------|  
D|-------------------------------------8-8-8-8-8-8-8-8-5-5-5-5---------|  
A|-----5-5-5-5-5-5-5-5-8-8-8-8-8-8-8-8-6-6-6-6-6-6-6-6-3-3-3-3-5-3-----|  
E|-3---3-3-3-3-3-3-3-3-6-6-6-6-6-6-6-6-----------------------------6-5-| (4x)  

Intro:  

e|--------------------------------------------------|  
B|--------------------------------------------------|  
G|---5-5-5-3--------5-5-5-3-------------------------|  
D|---5-5-5-3--------5-5-5-3-------------------------|  
A|------------5-5------------5-5--0-1-0-1-0-1-0-1-0-|  
E|------------3-3------------3-3--0-1-0-1-0-1-0-1-0-| (2x)  

verso 2: G5 C5 G5 C5 D5 Eb5 D5 Eb5 D5 Eb5 D5  

Refrão: G5 Bb5 Eb5 C5   

e|------------------------------------------------------------------|  
B|------------------------------------------------------------------|  
G|------------------------------------------------------------------|  
D|----------------------------------8-8-8-8-8-8-8-8-5-5-5-5---------|  
A|--5-5-5-5-5-5-5-5-8-8-8-8-8-8-8-8-6-6-6-6-6-6-6-6-3-3-3-3-5-3-----|  
E|--3-3-3-3-3-3-3-3-6-6-6-6-6-6-6-6-----------------------------6-5-|  

e|---------------------------------------------------------------------|  
B|---------------------------------------------------------------------|  
G|---------------------------------------------------------------------|  
D|-------------------------------------8-8-8-8-8-8-8-8-5-5-5-5---------|  
A|-----5-5-5-5-5-5-5-5-8-8-8-8-8-8-8-8-6-6-6-6-6-6-6-6-3-3-3-3-5-3-----|  
E|-3---3-3-3-3-3-3-3-3-6-6-6-6-6-6-6-6-----------------------------6-5-| (2x)  

Parte 2: Bb5 Eb5 C5 G5 Bb5 Eb5 F5 Bb5  

Refrão: Bb5 Eb5 C5   

e|---------------------------------------------------|  
B|---------------------------------------------------|  
G|---------------------------------------------------|  
D|-------------------8-8-8-8-8-8-8-8-5-5-5-5---------|  
A|---8-8-8-8-8-8-8-8-6-6-6-6-6-6-6-6-3-3-3-3-5-3-----|  
E|---6-6-6-6-6-6-6-6-----------------------------6-5-|  

e|---------------------------------------------------------------------|  
B|---------------------------------------------------------------------|  
G|---------------------------------------------------------------------|  
D|-------------------------------------8-8-8-8-8-8-8-8-5-5-5-5---------|  
A|-----5-5-5-5-5-5-5-5-8-8-8-8-8-8-8-8-6-6-6-6-6-6-6-6-3-3-3-3-5-3-----|  
E|-3---3-3-3-3-3-3-3-3-6-6-6-6-6-6-6-6-----------------------------6-5-| (2x)  


Pausa e volta para o Refrão: G5 Bb5 Eb5 C5 Bb5 G5  



e|------------------------------------------------------------|  
B|------------------------------------------------------------|  
G|------------------------------------------------------------|  
D|----------------------------------8-8-8-8-8-8-8-8-5---3-----|  
A|--5-5-5-5-5-5-5-5-8-8-8-8-8-8-8-8-6-6-6-6-6-6-6-6-3---1--5--|  
E|--3-3-3-3-3-3-3-3-6-6-6-6-6-6-6-6------------------------3--|  

Guitarra 2:  

Intro:  

e|--------13-------10---|  
B|----------------------|  
G|----/12------12-------|  
D|----------------------|  
A|----------------------|  
E|----------------------|  


Refrão:  

e|----------13-10--------13-10--------13-10--------13-10---|  
B|-------11-----------11-----------11-----------11---------|  
G|----12-----------12-----------12-----------12------------|  
D|---------------------------------------------------------|  
A|---------------------------------------------------------|  
E|---------------------------------------------------------|  

Intro 2:  

e|----8----10-8----------------10-8------|  
B|-------8------11-8-----11-8-------11-8-|  
G|---------------------------------------|  
D|---------------------------------------|  
A|---------------------------------------|  
E|---------------------------------------|  

verse 2:  

e|---------13--10--------13--10-----|  
B|----------------11-------------11-|  
G|----12-------------12-------------|  
D|----------------------------------|  
A|----------------------------------|  
E|----------------------------------|  

e|---8--11--10---------8--11-------10b11r10b11r10b11r10b11r10-|  
B|---------------8--11---------11-----------------------------|  
G|------------------------------------------------------------|  
D|------------------------------------------------------------|  
A|------------------------------------------------------------|  
E|------------------------------------------------------------|  


Final:  

e|--------------------------------------------------------------------|  
B|-----11----11----13-11----11----13-11----11----13-11----11----13-11-|  
G|-/12----12----12-------12----12-------12----12-------12----12-------|  
D|--------------------------------------------------------------------|  
A|--------------------------------------------------------------------|  
E|--------------------------------------------------------------------|  

  

cifra enviadacorrigido por:Acelot
enviado porenviada por:Acelot
top 5 | fernandinho
top gospel
Outras músicas do artista letras do(a) Fernandinho
Top cifras »Top artistas »
Petaxxon Comunicação Online
Cifras.com.br - Melhor e mais completo site de cifras e tablaturas do Brasil
Mais de 1 milhão de acordes de músicas cadastradas desde 2003
As informações contidas no nosso site são colaborações de seus usuários e podem conter erros, sendo assim, não nos responsabilizamos sobre nenhuma destas.
close
menos
mais
close
Cor dos acordes:

Cor da letra:

 

save
close
close
 
redimensionar