Cifras e Tablaturas
Fernandinho

Fernandinho

Caia Fogo Tablatura Verificada

Compositor : (Fernandinho)

Cifras Cancelar Versão de Impressão
cifras

Fernandinho - Caia Fogo

fixar na tela  
Exibindo: vídeo-aula ver clipes redimensionar
  
Intro:  

e|-----------------------------------------------------------|  
B|--------0--0----0---0----0------------0--0----0---0----0---|  
G|--/11--11-11\9--9\8-8\4--4/6----/11--11-11\9--9p8-8\4--4h6-|  
D|-----------------------------------------------------------|  
A|-----------------------------------------------------------|  
E|-----------------------------------------------------------|  

Verso 1: G#m11 B9 F#11  



Verso 2: G#m7(11) E9 B9 F#11 (2x)  

e|------2------------2-----------2-----------------|  
B|--------2------------0-----------2---------0-----|  
G|----------4------------1-----------4---------3---|  
D|----4-----------2------------4-----------4-----4-|  
A|--------------------------2----------------------|  
E|-4-----------0------------------------2----------|  

Refrão: E5 B5 G#5 F#5  

e|---------------------------------------------------------------|  
B|---------------------------------------------------------------|  
G|-9-9-9h11-11-11-9-9-9--8-8-8-8--6-6-6-6---4---4-4-4--4---4-4-4-|  
D|-9-9-9----9--9--9-9-9--9-9-9-9--9-9-9-9---4h6-6-6-6--4h6-6-6-6-|  
A|---------------------------------------------------------------|  
E|---------------------------------------------------------------|  

e|-------------------|  
B|-7-7-7-7---7-7-7-7-|  
G|-6-6-6-6---4-4-4-4-|  
D|-4-4-4-4---4-4-4-4-|  
A|-------------------|  
E|-------------------|  

e|-------------------------------------------------------------|  
B|-------------------------------------------------------------|  
G|-9-9-9h11-11--9-9-9--8-8-8-8--6-6-6-6---4---4-4-4--4---4-4-4-|  
D|-9-9-9----9---9-9-9--9-9-9-9--9-9-9-9---4h6-6-6-6--4h6-6-6-6-|  
A|-------------------------------------------------------------|  
E|-------------------------------------------------------------|  

e|-------------------|  
B|-7-7-7-7---7-7-7-7-|  
G|-6-6-6-6---4-4-4-4-|  
D|-4-4-4-4---4-4-4-4-|  
A|-------------------|  
E|-------------------|  

Ministração: G#m7(11) E9 B9 F#11 (2x)  



e|------2------------2-----------2-----------------|  
B|--------2------------0-----------2---------0-----|  
G|----------4------------1-----------4---------3---|  
D|----4-----------2------------4-----------4-----4-|  
A|--------------------------2----------------------|  
E|-4-----------0------------------------2----------|  

Refrão: E5 B5 G#5 F#5  

e|---------------------------------------------------------------|  
B|---------------------------------------------------------------|  
G|-9-9-9h11-11-11-9-9-9--8-8-8-8--6-6-6-6---4---4-4-4--4---4-4-4-|  
D|-9-9-9----9--9--9-9-9--9-9-9-9--9-9-9-9---4h6-6-6-6--4h6-6-6-6-|  
A|---------------------------------------------------------------|  
E|---------------------------------------------------------------|  

e|-------------------|  
B|-7-7-7-7---7-7-7-7-|  
G|-6-6-6-6---4-4-4-4-|  
D|-4-4-4-4---4-4-4-4-|  
A|-------------------|  
E|-------------------|  

e|-------------------------------------------------------------|  
B|-------------------------------------------------------------|  
G|-9-9-9h11-11--9-9-9--8-8-8-8--6-6-6-6---4---4-4-4--4---4-4-4-|  
D|-9-9-9----9---9-9-9--9-9-9-9--9-9-9-9---4h6-6-6-6--4h6-6-6-6-|  
A|-------------------------------------------------------------|  
E|-------------------------------------------------------------|  

e|-------------------|  
B|-7-7-7-7---7-7-7-7-|  
G|-6-6-6-6---4-4-4-4-|  
D|-4-4-4-4---4-4-4-4-|  
A|-------------------|  
E|-------------------|  

Ministração 2: E F#11 (4x)  

e|-----------------------------------------------|  
B|----------0-------0--------------0-------0-----|  
G|------3-------3-----3--------3-------3-----3---|  
D|----4---4---4---4-----4----4---4---4---4-----4-|  
A|-----------------------------------------------|  
E|--0----------------------2---------------------|  

  

cifra enviadacorrigido por:Acelot
enviado porenviada por:Acelot
top 5 | fernandinho
top gospel
Outras músicas do artista letras do(a) Fernandinho
Top cifras »Top artistas »
Petaxxon Comunicação Online
Cifras.com.br - Melhor e mais completo site de cifras e tablaturas do Brasil
Mais de 1 milhão de acordes de músicas cadastradas desde 2003
As informações contidas no nosso site são colaborações de seus usuários e podem conter erros, sendo assim, não nos responsabilizamos sobre nenhuma destas.
close
menos
mais
close
Cor dos acordes:

Cor da letra:

 

save
close
close
 
redimensionar