Cifras e Tablaturas
Fernandinho

Fernandinho

Infinitamente Mais Tablatura Verificada

Compositor : (Fernandinho)

Cifras Cancelar Versão de Impressão
cifras

Fernandinho - Infinitamente Mais

fixar na tela  
Exibindo: vídeo-aula ver clipes redimensionar
  
Intro:  

e|-13--13---11--13\15--13--13--13\16--13--|  
B|----------------------------------------|  
G|----------------------------------------|  
D|----------------------------------------|  
A|----------------------------------------|  
E|----------------------------------------|  

e|--------------------------------------------------|  
B|---------------------------------8-8--8--8-8--8---|  
G|----10-x-8-10----10-x-8-10-------8-8--8--8-8--8---|  
D|----10-x-8-10----10-x-8-10-------6-6--6--6-6--6---|  
A|--8------------8----------------------------------|  
E|--------------------------------------------------| (3x)  

verse 1: Fm Db  

e|------------------------------------------|  
B|-------9----8h9---------------9----8h9----|  
G|-10-10---10-----10-10---10-10---10-----10-|  
D|------------------------------------------|  
A|------------------------------------------|  
E|------------------------------------------|  

e|------------------------------------------------------|  
B|------------------------------------------------------|  
G|-10-10-10-10-10-10-10-10---10-10-10-10-10-10-10-10-10-|  
D|------------------------------------------------------|  
A|------------------------------------------------------|  
E|------------------------------------------------------|  

e|------------------------------------------|  
B|-------9----8h9---------------9----8h9----|  
G|-10-10---10-----10-10---10-10---10-----10-|  
D|------------------------------------------|  
A|------------------------------------------|  
E|------------------------------------------|  

e|------------------------------------------------------|  
B|------------------------------------------------------|  
G|-10-10-10-10-10-10-10-10---10-10-10-10-10-10-10-10-10-|  
D|------------------------------------------------------|  
A|------------------------------------------------------|  
E|------------------------------------------------------|  

verse 2: Bbm Db Eb  

e|----------------------------------------------------------|  
B|----------------------------------------------------------|  
G|-6-6p5--6-6p5-6-6p5-6\8------6-6p5--6-6p5-6-6p5-6-8--6--8-|  
D|-------------------------3---------------------------6--8-|  
A|-------------------------3---------------------------4--6-|  
E|-------------------------1--------------------------------|  

pré-Chorus e Chorus: Ab Eb Fm Db Ab Eb  

e|-------------------------------------------------------------------|  
B|-------------------------13-13--16--13--14-------------------------|  
G|-6-6p5--6-6p5-6-6p5-6-8--------------------------------------------|  
D|-----------------------------------------------------------8-----8-|  
A|-------------------------------------------6-----6-----6---6-6-6-6-|  
E|-------------------------------------------4-4-4-4-4-4-4-4---------|  

e|-------------------------------------------------------------|  
B|-------------------------------------------------------------|  
G|-------------------------------------------------------------|  
D|-------8-----8-----6----------------8-----8-----8-----8----6-|  
A|---6-6-6--6--6--3--4--6-----6-----6-6-6-6-6-6-6-6--6--6--3-4-|  
E|----------4-----1-----4-4-4-4-4-4-4----------------4-----1---|  

e|---------------------------------|  
B|---------------------------------|  
G|---------------------------------|  
D|----------------8-----8-----8--8-|  
A|--6-----6-----6-6-6-6-6-6-6-6--6-|  
E|--4-4-4-4-4-4-4------------------|  

Intro:  

e|--------------------------------------------------|  
B|---------------------------------8-8--8--8-8--8---|  
G|----10-x-8-10----10-x-8-10-------8-8--8--8-8--8---|  
D|----10-x-8-10----10-x-8-10-------6-6--6--6-6--6---|  
A|--8------------8----------------------------------|  
E|--------------------------------------------------| (2x)  

verse 1: Fm Db  

e|------------------------------------------|  
B|-------9----8h9---------------9----8h9----|  
G|-10-10---10-----10-10---10-10---10-----10-|  
D|------------------------------------------|  
A|------------------------------------------|  
E|------------------------------------------|  

e|------------------------------------------------------|  
B|------------------------------------------------------|  
G|-10-10-10-10-10-10-10-10---10-10-10-10-10-10-10-10-10-|  
D|------------------------------------------------------|  
A|------------------------------------------------------|  
E|------------------------------------------------------|  

e|------------------------------------------|  
B|-------9----8h9---------------9----8h9----|  
G|-10-10---10-----10-10---10-10---10-----10-|  
D|------------------------------------------|  
A|------------------------------------------|  
E|------------------------------------------|  

e|------------------------------------------------------|  
B|------------------------------------------------------|  
G|-10-10-10-10-10-10-10-10---10-10-10-10-10-10-10-10-10-|  
D|------------------------------------------------------|  
A|------------------------------------------------------|  
E|------------------------------------------------------|  

verse 2: Bbm Db Eb  

e|----------------------------------------------------------|  
B|----------------------------------------------------------|  
G|-6-6p5--6-6p5-6-6p5-6\8------6-6p5--6-6p5-6-6p5-6-8--6--8-|  
D|-------------------------3---------------------------6--8-|  
A|-------------------------3---------------------------4--6-|  
E|-------------------------1--------------------------------|  

Chorus: Ab Eb Fm Db Ab Eb  

Final:  

e|----------------------------------|  
B|-9--9--9--9--9-9--8--8--8--8--8-9-|  
G|-8--8--8--8--8-8--8--8--8--8--8-8-|  
D|------------------6--6--6--6--6-6-|  
A|----------------------------------|  
E|-8--8--8--8--8-8------------------|  

  

cifra enviadacorrigido por:Acelot
enviado porenviada por:Acelot
top 5 | fernandinho
top gospel
Outras músicas do artista letras do(a) Fernandinho
Top cifras »Top artistas »
Petaxxon Comunicação Online
Cifras.com.br - Melhor e mais completo site de cifras e tablaturas do Brasil
Mais de 1 milhão de acordes de músicas cadastradas desde 2003
As informações contidas no nosso site são colaborações de seus usuários e podem conter erros, sendo assim, não nos responsabilizamos sobre nenhuma destas.
close
menos
mais
close
Cor dos acordes:

Cor da letra:

 

save
close
close
 
redimensionar