Cifras e Tablaturas
FFH

FFH

The First Noel

Cifras Cancelar Versão de Impressão
cifras

FFH - The First Noel

fixar na tela  
Exibindo: vídeo-aula ver clipes redimensionar

Tom:

  
First Verse 
The first Noel the angel did say 
Was to certain poor shepherds in fields as they lay 
In fields where they lay keeping their sheep 
On a cold winter's night that was so deep 

Chorus 1 
Noel, Noel, Noel, Noel, 
Born is the King of Israel. 

After Chorus 
e|-6--4--3---3--4--6----8-8-8---| 
B|-4--4--4---4--4--4----8-8-8---| 
G|-0--0--0---0--0--0----0-0-0---| 
D|------------------------------| 
A|------------------------------| 
E|------------------------------| 

verse 2 first half 
They looked up and saw a star 
Shining in the east, beyond them far 
e|--8-8-8---| 
B|--8-8-8---| (no wah) 
G|--0-0-0---| 
D|----------| 
A|----------| 
E|----------| 

And to the earth it gave great light, 
And so it continued all day and all night. 

Chorus 2 
Noel, Noel, Noel, Noel, 
Born is the King of Israel. 
e|--8-8-8---| 
B|--8-8-8---|   on beats 1 & 4 (no wah) 
G|--0-0-0---| 
D|----------| 
A|----------| 
E|----------| 

verse 3 
Then let us all with one accord 
e|--10-10-10--9-9-9-| 
B|------------------| 
G|------------------| 
D|------------------| 
A|------------------| 
E|------------------| 

Sing praises to our heavenly Lord 
e|--10-10-10--9-9-9----------| 
B|-------------------12~~~~--| 
G|---------------------------| 
D|---------------------------| 
A|---------------------------| 
E|---------------------------| 

Who hath made heaven and earth of nought, 
And with His blood mankind hath bought. 

After verse 3 
e|--0---0-0--0-0-0--| 
B|--7/9-9-9--7-7-7--| 
G|------------------| 
D|------------------| 
A|------------------| 
E|------------------| 

Chorus 3 
Noel, Noel, Noel, Noel, 
Born is the King of Israel. 
e|--10--10--1010--10---| 
B|--10--10--7h8---10---| 
G|--0---0---0-0---0----| 
D|---------------------| 
A|---------------------| 
E|---------------------| 

Outro 
e|--0---0-0--0-0-0------0-0-0-0---| 
B|--7/9-9-9--7-7-7------7/9-9-10--| 
G|--------------------------------| 
D|--------------------------------| 
A|--------------------------------| 
E|--------------------------------| 


************************************ 

| /   Slide up 
| h   Hammer 

************************************ 
  

top 5 | ffh
top gospel
Outras músicas do artista letras do(a) FFH
Top cifras »Top artistas »
Petaxxon Comunicação Online
Cifras.com.br - Melhor e mais completo site de cifras e tablaturas do Brasil
Mais de 1 milhão de acordes de músicas cadastradas desde 2003
As informações contidas no nosso site são colaborações de seus usuários e podem conter erros, sendo assim, não nos responsabilizamos sobre nenhuma destas.
close
menos
mais
close
Cor dos acordes:

Cor da letra:

 

save
close
close
 
redimensionar