Cifras e Tablaturas
Cifras Cancelar Versão de Impressão
cifras

Field Medic - Uuu

fixar na tela  
Exibindo: vídeo-aula ver clipes redimensionar

Tom:

  
Intro 
e|-------------------------------------------------------| 
B|--------1--------1--------1-------1--------1-----------| 
G|----0--------0--------0--------0-------2--------0---0--| 
D|------2--------2--------2--------2-------3-------------| 
A|--3-----------------3-----------------------------2----| 
E|-----------3-----------------3-------1--------3--------| 

e|-------------------------------------| 
B|--------1--------1-------------------| 
G|----0--------0--------0---0---0---0--| 
D|------2--------2---------------------| 
A|--3-----------------3-------0---2----| 
E|-----------3------------3------------| 

Verse 
"All I ever needed was your matchstick, mama" 
e|--------------------------------------------------------------------------| 
B|--------1--------1--------1---------1--------1--------1--------0-------0--| 
G|----0--------0--------0--------0---------0--------0--------0--------0-----| 
D|------2--------2--------2---------2--------2--------2--------0--------0---| 
A|--3-----------------3------------------3----------------------------------| 
E|-----------3-----------------3------------------3--------3--------3-------| 

"To take my darkness and make it bright" 
e|--------------------------------------------------------------------------| 
B|--------1--------1--------1-------1--------1--------1--------1--------1---| 
G|----0--------0--------0--------0-------0--------0--------0--------0-------| 
D|------3--------3--------3--------3-------3--------3--------3--------3-----| 
A|--0--------0--------2--------2-------0--------0--------2--------2---------| 
E|--------------------------------------------------------------------------| 

Chorus 
"I want you, you, you" 
e|------------------------------0-------------1-------1--------3------------| 
B|--------1--------1--------0h1-----------2--------2--------------------0---| 
G|----0--------0--------0------------0------3--------3-----0--------0-------| 
D|------2--------0--------2-------------0--------0-----------0--------0-----| 
A|--3--------2--------0-----------0-----------------------------------------| 
E|-------------------------------------------------------3--------3---------| 

"I want you, you, you" 
e|------------------------------0-------------1-------1---------------------| 
B|--------1--------1--------0h1-----------2--------2-----------0--------0---| 
G|----0--------0--------0------------0------3--------3-----0--------0-------| 
D|------2--------0--------2-------------0--------0-----------0--------0-----| 
A|--3--------2--------0-----------0-----------------------------------------| 
E|-------------------------------------------------------3--------3---------| 

e|-------------------------------------| 
B|--------1--------1-------------------| 
G|----0--------0--------0---0---0---0--| 
D|------2--------2---------------------| 
A|--3-----------------3-------0---2----| 
E|-----------3------------3------------| 

Verse 
"All I ever needed was your Siamese kiss" 
e|--------------------------------------------------------------------------| 
B|--------1--------1--------1---------1--------1--------1--------0-------0--| 
G|----0--------0--------0--------0---------0--------0--------0--------0-----| 
D|------2--------2--------2---------2--------2--------2--------0--------0---| 
A|--3-----------------3------------------3----------------------------------| 
E|-----------3-----------------3------------------3--------3--------3-------| 

"To clear the fog, see through the mist" 
e|--------------------------------------------------------------------------| 
B|--------1--------1--------1-------1--------1--------1--------1--------1---| 
G|----0--------0--------0--------0-------0--------0--------0--------0-------| 
D|------3--------3--------3--------3-------3--------3--------3--------3-----| 
A|--0--------0--------2--------2-------0--------0--------2--------2---------| 
E|--------------------------------------------------------------------------| 

Chorus 
"I want you, you, you" 
e|------------------------------0-------------1-------1--------3------------| 
B|--------1--------1--------0h1-----------2--------2--------------------0---| 
G|----0--------0--------0------------0------3--------3-----0--------0-------| 
D|------2--------0--------2-------------0--------0-----------0--------0-----| 
A|--3--------2--------0-----------0-----------------------------------------| 
E|-------------------------------------------------------3--------3---------| 

"I want you, you, you" 
e|------------------------------0-------------1-------1---------------------| 
B|--------1--------1--------0h1-----------2--------2-----------0--------0---| 
G|----0--------0--------0------------0------3--------3-----0--------0-------| 
D|------2--------0--------2-------------0--------0-----------0--------0-----| 
A|--3--------2--------0-----------0-----------------------------------------| 
E|-------------------------------------------------------3--------3---------| 

"I want you" 
e|--------------------------------------| 
B|--------1--------1--------1--------1--| 
G|----0--------0--------0--------0------| 
D|------2--------2--------2--------0----| 
A|--3-----------------3--------2--------| 
E|-----------3--------------------------| 

Bridge 
"Lovin' you sure makes me afraid" 
e|-------------------------------------------------------------------------| 
B|--------1-------1--------1--------1--------1--------1--------1--------1--| 
G|----2-------2--------2--------2--------2--------2--------2--------2------| 
D|------3-------3--------3--------3--------3--------3--------3--------3----| 
A|-------------------------------------------------------------------------| 
E|--1--------1-------1--------1--------3--------3--------3--------3--------| 

"of losin'" 
e|-------------------------------------------------------------------------| 
B|--------1--------1--------1--------1--------1--------1--------1--------0-| 
G|----2--------2--------2--------2--------2--------2--------2--------0-----| 
D|------2--------2--------2--------2--------2--------2--------2--------0---| 
A|--0--------0-------------------------------------------------------------| 
E|--------------------3--------3--------1--------1--------1--------3-------| 

"But I don't care, I can't slow down now" 
e|-------------------------------------------------------------------------| 
B|--------1-------1--------1--------1--------1--------1--------1--------1--| 
G|----2-------2--------2--------2--------2--------2--------2--------2------| 
D|------3-------3--------3--------3--------3--------3--------3--------3----| 
A|-------------------------------------------------------------------------| 
E|--1--------1-------1--------1--------3--------3--------3--------3--------| 

"Once we kissed I lost my choice to be choosin'" 
e|-------------------------------------------------------------------------| 
B|--------1--------1--------1--------1--------1--------1--------1--------1-| 
G|----2--------2--------2--------2--------2--------2--------2--------2-----| 
D|------2--------2--------2--------2--------2--------2--------2--------2---| 
A|--0--------0-------------------------------------------------------------| 
E|--------------------3--------3--------1--------1--------1--------1-------| 

"And no one else will do" 
e|-----------------------------------------------------------------------------| 
B|--------0--------0--------0--------0--------0--------0--------0--------------| 
G|----0--------0--------0--------0--------0--------0--------0--------0---0---0-| 
D|------0--------0--------0--------0--------0--------0--------0----------------| 
A|---------------------------------------------------------------------0---2---| 
E|--3--------3--------3--------3--------3--------3--------3--------3-----------| 

Verse 
"All I ever needed was your red wine voice" 
e|--------------------------------------------------------------------------| 
B|--------1--------1--------1---------1--------1--------1--------0-------0--| 
G|----0--------0--------0--------0---------0--------0--------0--------0-----| 
D|------2--------2--------2---------2--------2--------2--------0--------0---| 
A|--3-----------------3------------------3----------------------------------| 
E|-----------3-----------------3------------------3--------3--------3-------| 

"And when I say "let's take off all our clothes"" 
e|--------------------------------------------------------------------------| 
B|--------1--------1--------1-------1--------1--------1--------1--------1---| 
G|----0--------0--------0--------0-------0--------0--------0--------0-------| 
D|------3--------3--------3--------3-------3--------3--------3--------3-----| 
A|--0--------0--------2--------2-------0--------0--------2--------2---------| 
E|--------------------------------------------------------------------------| 

Chorus 

"I want you, you, you" 
e|------------------------------0-------------1-------1--------3------------| 
B|--------1--------1--------0h1-----------2--------2--------------------0---| 
G|----0--------0--------0------------0------3--------3-----0--------0-------| 
D|------2--------0--------2-------------0--------0-----------0--------0-----| 
A|--3--------2--------0-----------0-----------------------------------------| 
E|-------------------------------------------------------3--------3---------| 

"I want you, you, you" 
e|------------------------------0-------------1-------1---------------------| 
B|--------1--------1--------0h1-----------2--------2-----------0--------0---| 
G|----0--------0--------0------------0------3--------3-----0--------0-------| 
D|------2--------0--------2-------------0--------0-----------0--------0-----| 
A|--3--------2--------0-----------0-----------------------------------------| 
E|-------------------------------------------------------3--------3---------| 

"I want you" 
e|--------------------------------------| 
B|--------1--------1--------1--------1--| 
G|----0--------0--------0--------0------| 
D|------2--------2--------2--------0----| 
A|--3-----------------3--------2--------| 
E|-----------3--------------------------| 

Bridge 
"Lovin' you sure makes me afraid" 
e|-------------------------------------------------------------------------| 
B|--------1-------1--------1--------1--------1--------1--------1--------1--| 
G|----2-------2--------2--------2--------2--------2--------2--------2------| 
D|------3-------3--------3--------3--------3--------3--------3--------3----| 
A|-------------------------------------------------------------------------| 
E|--1--------1-------1--------1--------3--------3--------3--------3--------| 

"of losin'" 
e|-------------------------------------------------------------------------| 
B|--------1--------1--------1--------1--------1--------1--------1--------0-| 
G|----2--------2--------2--------2--------2--------2--------2--------0-----| 
D|------2--------2--------2--------2--------2--------2--------2--------0---| 
A|--0--------0-------------------------------------------------------------| 
E|--------------------3--------3--------1--------1--------1--------3-------| 

"But I don't care, I can't slow down now" 
e|-------------------------------------------------------------------------| 
B|--------1-------1--------1--------1--------1--------1--------1--------1--| 
G|----2-------2--------2--------2--------2--------2--------2--------2------| 
D|------3-------3--------3--------3--------3--------3--------3--------3----| 
A|-------------------------------------------------------------------------| 
E|--1--------1-------1--------1--------3--------3--------3--------3--------| 

"Once we kissed I lost my choice to be choosin'" 
e|-------------------------------------------------------------------------| 
B|--------1--------1--------1--------1--------1--------1--------1--------1-| 
G|----2--------2--------2--------2--------2--------2--------2--------2-----| 
D|------2--------2--------2--------2--------2--------2--------2--------2---| 
A|--0--------0-------------------------------------------------------------| 
E|--------------------3--------3--------1--------1--------1--------1-------| 

"And no one else will do" 
e|--------------------------------------------1--------1--------1--------------| 
B|--------0--------0--------0--------0-----------------------------------------| 
G|----0--------0--------0--------0--------0--------0--------0--------0---0---0-| 
D|------0--------0--------0--------0--------0--------0--------0----------------| 
A|---------------------------------------------------------------------0---2---| 
E|--3--------3--------3--------3--------3--------3--------3--------3-----------| 

Ending 
"Baby, you" 
e|-------------------------------------------------------------------------| 
B|--------1--------1--------1--------1--------1--------1-------1--------1--| 
G|----0--------0--------0--------0--------0--------0-------0--------0------| 
D|------2--------2--------2--------2--------2--------2-------2--------2----| 
A|--3-----------------3-----------------3----------------3-----------------| 
E|-----------3-----------------3-----------------3----------------3--------| 

e|--------------------------------------| 
B|--------1--------1--------0-----------| 
G|----2--------2--------0--------0----0-| 
D|------3--------3--------0-------------| 
A|---------------------------------2----| 
E|--1--------1--------3--------3--------| 

e|--------------------------------------------------------------------------| 
B|--------1--------1--------1--------1--------1--------1--------1--------1--| 
G|----0--------0--------0--------0--------0--------0--------0--------0------| 
D|------2--------2--------2--------2--------2--------2--------2--------2----| 
A|--3-----------------3-----------------3-----------------3-----------------| 
E|-----------3-----------------3-----------------3-----------------3--------| 

e|----------------------------------------| 
B|----------1--------1--------0-----------| 
G|----2----------2--------0--------0---0--| 
D|-------3---------3--------0-------------| 
A|-----------------------------------2----| 
E|--1----------1--------3--------3--------| 

e|-------------------------------------------0--| 
B|--------1--------1--------1----------------1--| 
G|----0--------0--------2--------0---0-------0--| 
D|------2--------2--------3------------------2--| 
A|--3------------------------------2---------3--| 
E|-----------3--------1--------3----------------| 



******************** 

| h - hammer on 

******************** 
  

top 5 | field medic
top rock'n roll
Outras músicas do artista letras do(a) Field Medic
5.
Uuu
Top cifras »Top artistas »
Petaxxon Comunicação Online
Cifras.com.br - Melhor e mais completo site de cifras e tablaturas do Brasil
Mais de 1 milhão de acordes de músicas cadastradas desde 2003
As informações contidas no nosso site são colaborações de seus usuários e podem conter erros, sendo assim, não nos responsabilizamos sobre nenhuma destas.
close
menos
mais
close
Cor dos acordes:

Cor da letra:

 

save
close
close
 
redimensionar