Cifras e Tablaturas
Finley Quaye

Finley Quaye

Even After All

Cifras Cancelar Versão de Impressão

Finley Quaye - Even After All

Tom: E

  			
e|----------------------------------------------------------------| 
B|9-------9-------9-------9-------9-------9-------7-------14------| 
G|8-------9-------8-------9-------8-------9-------8-------13------| 
D|9-------11------9-------11------9-------11------9-------14------| 
A|----------------------------------------------------------------| 
E|----------------------------------------------------------------| 

Muted Wah Guitar Licks 

Var:1 
e|----------------| 
B|----------------| 
G|--999----7------| 
D|-------9--------| 
A|----------------| 
E|----------------|  

Var:2 
e|----------------| 
B|----------------| 
G|--999-77------- | 
D|-----9---7^7p5--| 
A|--------------77| 
E|----------------|  

Var:3 
e|----------------| 
B|----------------| 
G|--999---7---7-9-| 
D|------9---9-----| 
A|----------------| 
E|----------------| 

Clean Guitar Riff (listen to the dynamics of the attack at start and end) 

e|----------------------------------------------------------------| 
B|-------------------------------9--9--9----9--9------------------| 
G|9----------9--9------9---9-----9--9--9----9--9------------------| 
D|---11-9h11-9--9h11p9-11--9-----9--11-9h11-9--9h11-9-9*let ring--| 
A|----------------------------------------------------------------| 
E|----------------------------------------------------------------| 
    	
fixar
fixar inscrever-se

enviado porenviado por: bombaXXX
cifra enviadaCorrigida por: sem correções
logo top cifrasComente
ico música do artistaMúsicas deste artista
ico curtiuCurtiu?
ico destaqueDestaque
Petaxxon Comunicação Online

Cifras.com.br - Melhor e mais completo site de cifras e tablaturas do Brasil Mais de 1 milhão de acordes de músicas cadastradas desde 2003
As informações contidas no nosso site são colaborações de seus usuários e podem conter erros, sendo assim, não nos responsabilizamos sobre nenhuma destas.

close
menos
mais
close
Cor dos acordes:

Cor da letra:

close
Alinhar acordes a direita Alinhar acordes a esquerda Alinhar acordes em baixo Alinhar acordes no topo
close
  Mostrar todos os acordes Esconder acordes muito fáceis Esconder acordes fáceis Esconder acordes intermediários
redimensionar
glossário