Cifras e Tablaturas
Fireflight

Fireflight

Stand Up

Cifras Cancelar Versão de Impressão
cifras

Fireflight - Stand Up

fixar na tela  
Exibindo: vídeo-aula ver clipes redimensionar

Tom:

  
E|--------------------------------------------| 
B|--------------------------------------------| 
G|--------10--10--------9--9------------------| 
D|--------------------------------------------| 
A|--0--0--8---8---0--0--7--7--0--0--0--0------| 
E|--0--0----------0--0--------0--0--0--0------| 

    M  M          M  M        M  M  M 

E|-------------------------------------| 
B|-------------------------------------| 
G|-----10--10--------9--9--------------| 
D|-------------------------------------| 
A|--0--8---8---0--0--7--7--0--0--0--8--| 
E|--0----------0--0--------0--0--0--8--| 

    M          M  M        M  M  M 


E|-------------------------------------| 
B|-------------------------------------| 
G|-----10--10--------9--9--------------| 
D|-------------------------------------| 
A|--0--8---8---0--0--7--7--0--0--0--8--| 
E|--0----------0--0--------0--0--0--8--| 

    M          M  M        M  M  M 


E|----------------------------------------| 
B|----------------------------------------| 
G|-----10--10--------9--9-----------------| 
D|----------------------------------------| 
A|--0--8---8---0--0--7--7--0--0--0--0--0--| 
E|--0----------0--0--------0--0--0--0--0--| 

    M          M  M        M  M  M  M  M 


Verso 

E|------------------------------------------------| 
B|------------------------------------------------| 
G|------------------------------------------------| X2 
D|------7--0--0--8--0--0--7--0--0--7--0--0--0--7--| 
A|--3h5-------------------------------------------| 
E|------------------------------------------------| 


E|--------------------------------------------------------------------| 
B|--------------------------------------------------------------------| 
G|--------------------------------------------------------5--------5--| 
D|--------2--------3--------5--------3--------2-----2--2-----2--2-----| 
A|--3--3-----3--3-----3--3-----3--3-----3--3-----3--------------------| 
E|--------------------------------------------------------------------| 


E|-----------------------| 
B|-----------------------| 
G|-----------------------| 
D|--2--------3--------2--| 
A|-----1--1-----0--0-----| 
E|-----------------------| 


Pré- Refrão 


E|------------------------| 
B|------------------------| 
G|------------------------| 
D|--8--7--10--------------| 
A|--8--7--10--------------| 
E|--8--7--10--------------| 


Refrão 


E|-------------------------------------------| 
B|-------------------------------------------| 
G|--------10--10--------8--8-----------------| 
D|-------------------------------------------| 
A|--0--0--8---8---0--0--7--7--0--0--0--0-----| 
E|--0--0----------0--0--------0--0--0--0-----| 

    M  M          M  M       M  M  M 

E|----------------------------------| 
B|----------------------------------| 
G|-----10--10--------8--8-----------| 
D|----------------------------------| 
A|--0--8---8---0--0--7--7--0--0--0--| 
E|--0----------0--0--------0--0--0--| 

    M          M  M        M  M  M 


E|----------------------------------------------------------------------------| 
B|----------------------------------------------------------------------------| 
G|----------------------------------------------------------------------------| 
D|--8--8--8--8--8--8--8--8--8--8--8--8--8--8--8--8--3--3--3--3--3--3--3--3----| 
A|--8--8--8--8--8--8--8--8--8--8--8--8--8--8--8--8--3--3--3--3--3--3--3--3----| 
E|--8--8--8--8--8--8--8--8--8--8--8--8--8--8--8--8--3--3--3--3--3--3--3--3----| 
E|----------------------------------------------------------------------------| 
B|----------------------------------------------------------------------------| 
G|----------------------------------------------------------------------------| 
D|--0--0--3--0--3--5--3--0----------------------------------------------------| 
A|--0--0--3--0--3--5--3--0----------------------------------------------------| 
E|--0--0--3--0--3--5--3--0----------------------------------------------------| 

    M  M     M 

E|----------------------------------------------------------------------| 
B|----------------------------------------------------------------------| 
G|-----10--10--------9--9-----------------10--10--------9--9------------| 
D|----------------------------------------------------------------------| 
A|--0--8---8---0--0--7--7--0--0--0--0--0--8---8---0--0--7--7--0--0------| 
E|--0----------0--0--------0--0--0--0--0----------0--0--------0--0------| 

    M          M  M        M  M  M     M          M  M        M  M 

Pré-refrão 


E|---------------------------| 
B|---------------------------| 
G|---------------------------| 
D|--8--10--8--7--10----------| 
A|--8--10--8--7--10----------| 
E|--8--10--8--7--10----------| 


E|-------------------------------------------| 
B|-------------------------------------------| 
G|--------10--10--------9--9-----------------| 
D|-------------------------------------------| 
A|--0--0--8---8---0--0--7--7--0--0--0--0-----| 
E|--0--0----------0--0--------0--0--0--0-----| 

    M  M          M  M        M  M  M  M 

Ponte 

E|--------------------------| 
B|--------------------------| 
G|--------------------------| 
D|--------7--8--------2--3--| 
A|-----5-----------3--------| 
E|--5-----------3-----------| 


E|------------------------------------------------------------------------| 
B|------------------------------------------------------------------------| 
G|------------------------------------------------------------------------| 
D|--2--2--2--2--2--2--2--2--2--2--2--2--2--2--2--2--7--7--7--7--7--7--7--7| 
A|--2--2--2--2--2--2--2--2--2--2--2--2--2--2--2--2--7--7--7--7--7--7--7--7| 
E|--2--2--2--2--2--2--2--2--2--2--2--2--2--2--2--2--7--7--7--7--7--7--7--7| 

    M  M  M  M  M  M  M  M  M  M  M  M  M  M  M  M  M  M  M  M  M  M  M  M 

E|-----------------------------| 
B|-----------------------------| 
G|-----------------------------| 
D|--7--7--7--7--7--7--7--7-----| 
A|--7--7--7--7--7--7--7--7-----| 
E|--7--7--7--7--7--7--7--7-----| 

    M  M  M  M  M  M  M  M 

Solo 


E|----------------------------------------------------------------------| 
B|------------------------------------------------------10-13--13b~-----| 
G|------------------------------------------10-12-10-12-----------------| 
D|------------------------------10-12-10-12-----------------------------| 
A|--12~-------------------10-12-----------------------------------------| 
E|-----12~--14-15-14~-10~-----------------------------------------------| 


Refrão 


E|-------------------------------------------| 
B|-------------------------------------------| 
G|--------10--10--------8--8-----------------| 
D|-------------------------------------------| 
A|--0--0--8---8---0--0--7--7--0--0--0--0-----| 
E|--0--0----------0--0--------0--0--0--0-----| 

    M  M          M  M        M  M  M 


E|----------------------------------| 
B|----------------------------------| 
G|-----10--10--------8--8-----------| 
D|----------------------------------| 
A|--0--8---8---0--0--7--7-----------| 
E|--0----------0--0--------0h3p0----| 

    M          M  M 


E|--------------------------------------------------------------------------| 
B|--------------------------------------------------------------------------| 
G|--------------------------------------------------------------------------| 
D|--8--8--8--8--8--8--8--8--8--8--8--8--8--8--8--8--3--3--3--3--3--3--3--3--| 
A|--8--8--8--8--8--8--8--8--8--8--8--8--8--8--8--8--3--3--3--3--3--3--3--3--| 
E|--8--8--8--8--8--8--8--8--8--8--8--8--8--8--8--8--3--3--3--3--3--3--3--3--| 


E|--------------------------| 
B|--------------------------| 
G|--------------------------| 
D|--0--0--3--0--3--5--3--0--| 
A|--0--0--3--0--3--5--3--0--| 
E|--0--0--3--0--3--5--3--0--| 

    M  M     M 

Final 

E|-------------------------------------------| 
B|-------------------------------------------| 
G|--------10--10--------8--8-----------------| 
D|-------------------------------------------| 
A|--0--0--8---8---0--0--7--7--0--0--0--0-----| 
E|--0--0----------0--0--------0--0--0--0-----| 

    M  M          M  M        M  M  M 


E|-------------------------------------------| 
B|-------------------------------------------| 
G|--------10--10--------8--8-----------------| 
D|-------------------------------------------| 
A|--0--0--8---8---0--0--7--7--0--0--0--8-----| 
E|--0--0----------0--0--------0--0--0--8-----| 

    M  M          M  M        M  M  M 


E|-------------------------------------------| 
B|-------------------------------------------| 
G|--------10--10--------8--8-----------------| 
D|-------------------------------------------| 
A|--0--0--8---8---0--0--7--7--0--0--0--7-----| 
E|--0--0----------0--0--------0--0--0--8-----| 

    M  M          M  M        M  M  M 


E|-------------------------------------------| 
B|-------------------------------------------| 
G|--------10--10--------8--8-----------------| 
D|-------------------------------------------| 
A|--0--0--8---8---0--0--7--7--0--0--0--0-----| 
E|--0--0----------0--0--------0--0--0--0-----| 

    M  M          M  M        M  M  M  M 
  

top 5 | fireflight
top rock alternativo
Outras músicas do artista letras do(a) Fireflight
Top cifras »Top artistas »
Petaxxon Comunicação Online
Cifras.com.br - Melhor e mais completo site de cifras e tablaturas do Brasil
Mais de 1 milhão de acordes de músicas cadastradas desde 2003
As informações contidas no nosso site são colaborações de seus usuários e podem conter erros, sendo assim, não nos responsabilizamos sobre nenhuma destas.
close
menos
mais
close
Cor dos acordes:

Cor da letra:

 

save
close
close
 
redimensionar