Cifras e Tablaturas
Cifras Cancelar Versão de Impressão
cifras

Fit For A King - Hooked

fixar na tela  
Exibindo: vídeo-aula ver clipes redimensionar

Tom:

A#

ver outros tons
  
Intro 
G |---------------------------------------------------------------------------| 
D |---------------------------------------------------------------------------| 
A#|------------------------(Repeated through the whole intro)-----------------| 
F |---------------------------------------------------------------------------| 
A#|-7-7-7-7-11-7-7-7----------------------------------------------------------| 
F |---------------------------------------------------------------------------| 

G |---------------------------------------------------------------------------| 
D |---------------------------------------------------------------------------| 
A#|---------------------------------------------------------------------------| 
F |-------------------7-------------------------------------------------------|(x2) 
A#|-------------8-----------7----------------3-----7--------------------------| 
F |-0-0-0-0-------7-8---8-7-----0-0-0-0--------4-3---3-1----------------------| 

Verse 
G |---------------------------------------------------------------------------| 
D |---------------------------------------------------------------------------| 
A#|---------------------------------------------------------------------------| 
F |----------------------------------------------------------7----------------| 
A#|----------------------------------------------------8-----------7----------| 
F |-0-0-0-0-0-4~--0--0-0-0-0-0-4~--0--0-0-0-0-0-4--0-0---7-8---8-7------------| 

G |---------------------------------------------------------------------------| 
D |---------------------------------------------------------------------------| 
A#|---------------------------------------------------------------------------| 
F |---------------------------------------------------------------------------| 
A#|----------------------------------------------------3-----7----------------| 
F |-0-0-0-0-0-4~--0--0-0-0-0-0-4~--0--0-0-0-0-0-4--0-0---4-3---3-1------------| 

G |---------------------------------------------------------------------------| 
D |---------------------------------------------------------------------------| 
A#|---------------------------------------------------------------------------| 
F |----------------------------------------------------------7----------------| 
A#|----------------------------------------------------8-----------7----------| 
F |-0-0-0-0-0-4~--0--0-0-0-0-0-4~--0--0-0-0-0-0-4--0-0---7-8---8-7------------| 

G |---------------------------------------------------------------------------| 
D |---------------------------------------------------------------------------| 
A#|---------------------------------------------------------------------------| 
F |---------------------------------------------------------------------------| 
A#|----------------------------------------------------3-----7----------------| 
F |-0-0-0-0-0-4~--0--0-0-0-0-0-4~--0--0-0-0-0-0-4--0-0---4-3---3-1------------| 

G |---------------------------------------------------------------------------| 
D |---------------------------------------------------------------------------| 
A#|---------------------------------------------------------------------------| 
F |------------------------------------7--------------------------------------| 
A#|------------------------------8-----------7--------------------------------| 
F |-0-0-0-0--0-0-0-0--0-0-0-0--0---7-8---8-7----------------------------------| 

G |---------------------------------------------------------------------------| 
D |---------------------------------------------------------------------------| 
A#|---------------------------------------------------------------------------| 
F |---------------------------------------5\----------------------------------| 
A#|---------------------------------------5\----------------------------------| 
F |-0-0-0-0--0-0-0-0--0-0-0-0---0-0-0-0-0-------------------------------------| 

Pre-Chorus/Chorus 
G |------------------------------------------------------------------------------------------------------| 
D |-12-12-12-12-12-12-12--13-13-13-13--10-10-10-10-10--11-11-11-11-11-11-11--16-16-16-16--15-15-15-15-15-| 
A#|------------------------------------------------------------------------------------------------------| 
F |-9--9--9--9--9--9--9---10-10-10-10--7--7--7--7--7---8--8--8--8--8--8--8---13-13-13-13--12-12-12-12-12-| 
A#|------------------------------------------------------------------------------------------------------| 
F |------------------------------------------------------------------------------------------------------| 

Verse 
G |---------------------------------------------------------------------------| 
D |---------------------------------------------------------------------------| 
A#|-----------5-7-9-----------------------------------------------------------| 
F |---------------------------------------------------------------------------|(x9) 
A#|---------------------------------------------------------------------------| 
F |-0-0-0-0-0-----------------------------------------------------------------| 

G |---------------------------------------------------------------------------| 
D |---------------------------------------------------------------------------| 
A#|--------------5-7-9--------------------5-7-9-------------------------------| 
F |--------------------5------------------------5-----------------------------| 
A#|------5---5-7------------------5---5-7-------------------------------------| 
F |-0--0---3-------------3~--0--0---3-------------3/5-------------------------| 

G |---------------------------------------------------------------------------| 
D |---------------------------------------------------------------------------| 
A#|--------------5-7-9--------------------------------------------------------| 
F |--------------------5-----------8-----10-----12------13-12~----------------| 
A#|------5---5-7---------------------5-7----7-8----8-10-----------------------| 
F |-0--0---3-------------3~----0-0--------------------------------------------| 

G |---------------------------------------------------------------------------| 
D |---------------------------------------------------------------------------| 
A#|--------------5-7-9--------------------5-7-9-------------------------------| 
F |--------------------5------------------------5--^--------------------------| 
A#|------5---5-7------------------5---5-7----------3--------------------------| 
F |-0--0---3-------------3~--0--0---3-----------------------------------------| 

G |---------------------------------------------------------------------------| 
D |---------------------------------------------------------------------------| 
A#|--------------5-7-9--------------------------------------------------------| 
F |--------------------5-----------8-----10-----12------13-12~----------------| 
A#|------5---5-7---------------------5-7----7-8----8-10-----------------------| 
F |-0--0---3-------------3~----0-0--------------------------------------------| 

G |---------------------------------------------------------------------------| 
D |---------------------------------------------------------------------------| 
A#|---------------------------------------------------------------------------| 
F |---------------------------------------------------------------------------|(x2) 
A#|-2-2--2-----2-2-2-2-2-2---2-2-2----3-3--3-3--3-----------------------------| 
F |-0-0--0-0---0-0-0-0-0-0---0-0-0-0--1-1--1-1--1-----------------------------| 

G |---------------------------------------------------------------------------| 
D |---------------------------------------------------------------------------| 
A#|---------------------------------------------------------------------------| 
F |---------------------------------------------------------------------------|(x2) 
A#|---------------------------------------------------------------------------| 
F |-0-0--0-0--0-0-0-0--0-0---000-0--0-0-0-0--0-0--0-0--0-0--------------------| 
    *    *    * * * *  *     *** *  * * * *  *    *    * 

Pre-Chorus/Chorus 
G |------------------------------------------------------------------------------------------------------| 
D |-12-12-12-12-12-12-12--13-13-13-13--10-10-10-10-10--11-11-11-11-11-11-11--16-16-16-16--15-15-15-15-15-| 
A#|------------------------------------------------------------------------------------------------------| 
F |-9--9--9--9--9--9--9---10-10-10-10--7--7--7--7--7---8--8--8--8--8--8--8---13-13-13-13--12-12-12-12-12-| 
A#|------------------------------------------------------------------------------------------------------| 
F |------------------------------------------------------------------------------------------------------| 

Breakdown 
G |---------------------------------------------------------------------------| 
D |---------------------------------------------------------------------------| 
A#|-------------------(Repeated through the whole buildup to the breakdown)---| 
F |---------------------------------------------------------------------------| 
A#|-7-7-7-7-11-7-7-7----------------------------------------------------------| 
F |---------------------------------------------------------------------------| 

G |---------------------------------------------------------------------------| 
D |---------------------------------------------------------------------------| 
A#|---------------------------------------------------------------------------| 
F |-------------------7-------------------------------------------------------| 
A#|-------------8-----------7----------------3-----7--------------------------| 
F |-0-0-0-0-------7-8---8-7-----0-0-0-0--------4-3---3-1----------------------| 

G |---------------------------------------------------------------------------| 
D |---------------------------------------------------------------------------| 
A#|---------------------------------------------------------------------------| 
F |--------------------7------------------------------------------------------| 
A#|--------------8-----------7-----------------3-----7------------------------| 
F |-0-0-0-0-0------7-8---8-7-----0-0-0-0-0-------4-3---3-1--------------------| 

G |---------------------------------------------------------------------------| 
D |---------------------------------------------------------------------------| 
A#|---------------------------------------------------------------------------| 
F |---------------------------------------------------------------------------| 
A#|-3-3-3-3--3-3-3-3--3-3-3-3-------------------------------------------------| 
F |-1-1-1-1--1-1-1-1--1-1-1-1-1--0-0-0-0--------------------------------------| 

G |---------------------------------------------------------------------------| 
D |---------------------------------------------------------------------------| 
A#|---------------------------------------------------------------------------| 
F |---------------------------------------------------------------------------| 
A#|-3-3-3-3--3-3-3-3--3-3-3-3------3------------------------------------------| 
F |-1-1-1-1--1-1-1-1--1-1-1-1-1--0---1-0-1-4----------------------------------| 

G |---------------------------------------------------------------------------| 
D |---------------------------------------------------------------------------| 
A#|---------------------------------------------------------------------------| 
F |---------------------------------------------------------------------------| 
A#|-3-3-3-3--3-3-3-3--3-3-3-3-------------------------------------------------| 
F |-1-1-1-1--1-1-1-1--1-1-1-1-1--0-0-0-0--------------------------------------| 

G |---------------------------------------------------------------------------| 
D |---------------------------------------------------------------------------| 
A#|---------------------------------------------------------------------------| 
F |---------------------------------------------------------------------------| 
A#|-3-3-3-3--3-3-3-3--3-3-3-3------3------------------------------------------| 
F |-1-1-1-1--1-1-1-1--1-1-1-1-1--0---1-0-1-4----------------------------------| 

Verse 
G |---------------------------------------------------------------------------| 
D |---------------------------------------------------------------------------| 
A#|---------------------------------------------------------------------------| 
F |----------------------------------------------------------7----------------| 
A#|----------------------------------------------------8-----------7----------| 
F |-0-0-0-0-0-4~--0--0-0-0-0-0-4~--0--0-0-0-0-0-4--0-0---7-8---8-7------------| 

G |---------------------------------------------------------------------------| 
D |---------------------------------------------------------------------------| 
A#|---------------------------------------------------------------------------| 
F |---------------------------------------------------------------------------| 
A#|----------------------------------------------------3-----7----------------| 
F |-0-0-0-0-0-4~--0--0-0-0-0-0-4~--0--0-0-0-0-0-4--0-0---4-3---3-1------------| 

G |---------------------------------------------------------------------------| 
D |---------------------------------------------------------------------------| 
A#|---------------------------------------------------------------------------| 
F |----------------------------------------------------------7----------------| 
A#|----------------------------------------------------8-----------7----------| 
F |-0-0-0-0-0-4~--0--0-0-0-0-0-4~--0--0-0-0-0-0-4--0-0---7-8---8-7------------| 

G |---------------------------------------------------------------------------| 
D |---------------------------------------------------------------------------| 
A#|---------------------------------------------------------------------------| 
F |---------------------------------------------------------------------------| 
A#|----------------------------------------------------3-----7----------------| 
F |-0-0-0-0-0-4~--0--0-0-0-0-0-4~--0--0-0-0-0-0-4--0-0---4-3---3-1------------| 

G |---------------------------------------------------------------------------| 
D |---------------------------------------------------------------------------| 
A#|---------------------------------------------------------------------------| 
F |------------------------------------7--------------------------------------| 
A#|------------------------------8-----------7--------------------------------| 
F |-0-0-0-0--0-0-0-0--0-0-0-0--0---7-8---8-7----------------------------------| 

G |---------------------------------------------------------------------------| 
D |---------------------------------------------------------------------------| 
A#|---------------------------------------------------------------------------| 
F |---------------------------------------5\----------------------------------| 
A#|---------------------------------------5\----------------------------------| 
F |-0-0-0-0--0-0-0-0--0-0-0-0---0-0-0-0-0-------------------------------------| 


************************************ 

| b   Bend 
| /   Slide up 
| \   Slide down 
| ~   Vibrato 
| *  Palm mute 
| ^  Pinch Harmonic 

************************************ 
  

top 5 | fit for a king
top rock'n roll
Outras músicas do artista letras do(a) Fit For A King
Top cifras »Top artistas »
Petaxxon Comunicação Online
Cifras.com.br - Melhor e mais completo site de cifras e tablaturas do Brasil
Mais de 1 milhão de acordes de músicas cadastradas desde 2003
As informações contidas no nosso site são colaborações de seus usuários e podem conter erros, sendo assim, não nos responsabilizamos sobre nenhuma destas.
close
menos
mais
close
Cor dos acordes:

Cor da letra:

 

save
close
close
 
redimensionar