Cifras e Tablaturas
Cifras Cancelar Versão de Impressão
cifras

Fit For An Autopsy - Hydra

fixar na tela  
Exibindo: vídeo-aula ver clipes redimensionar

Tom:

G

ver outros tons
  
Intro 
(Guitar 1 and 2) 
d|--------------------------------|--------------------------------| 
A|--------------------------------|--------------------------------| 
F|----------2---1-----------------|--------------------------------| 
C|--------------------------------|--------------------------------|(x3) 
G|----5p4-----------3---4---4-4-4-|--------------------------------| 
D|--------------------------0-0-0-|0-------------------------------| 
G|--------0-----------------------|0-------------------------------| 
                            PM---| 

Hook 
(Guitar 1 and 2) 
d|------------------------|----------------------------|--------------------------------| 
A|------------------------|----------------------------|--------------------------------| 
F|------------------------|----------------------------|----------2---1-----------------| 
C|------------------------|----------------------------|--------------------------------|(x4) 
G|------------------------|----------------------------|----5p4-----------3---4---4-4-4-| 
D|0---0-0-0---0-0-0---0---|0-0-0---0-0-0---0---0-0-0---|--------------------------0-0-0-| 
G|1---1-1-1---1-1-1---1---|1-1-1---1-1-1---1---1-1-1---|0-------0-----------------------| 
      PM-----------|       PM-------------|    PM-----|                           PM---| 

Verse Part 1 
(Guitar 1 and 2)                   1st Ending                       2nd Ending 
d|----------------5-5-5-5---------|--------------------------------|--------------------------------| 
A|----------------9-9-9-9---------|--------------------------------|--------------------------------| 
F|--------------------------------|--------------------------------|--------------------------------| 
C|--------------------------------|--------3p2---------------------|--------------------------------|(x2) 
G|--------------------------------|5p4---------5p4-----4-4-----3-3-|----4-4-----3-3-----7-7-----8-8-| 
D|0-0-0-------------------0-------|----------------2-2-----2-2-----|2-2-----2-2-----5-5-----6-6-----| 
G|0-0-0---0---------------0-------|----0-0-------------------------|--------------------------------| 
  PM---|                               PM-|        PM-|    PM-|     PM-|    PM-|    PM-|    PM-| 

Verse Part 2 
(Guitar 1 and 2) 
d|----------------------------------------|----------------------------------------| 
A|----------------------------------------|----------------------------------------| 
F|----------------------------------------|----------------------------------------| 
C|----------------------------------------|----------------------------------------|(x4) 
G|7-7---------7-7-----8-8---------7-7-----|7-7---------7-7-----3-3---------4-4-----| 
D|----5-5-5-5-------------5-5-5-5-----5-5-|----5-5-5-5-------------1-1-1-1-----1-1-| 
G|----------------------------------------|----------------------------------------| 
      PM-----|            PM-----|    PM-|     PM-----|            PM-----|    PM-| 

Break 
(Guitar 1) 
d|------------|----------------|----------------|----------------| 
A|------------|----------------|----------------|----------------| 
F|------------|----------------|----------------|----------------| 
C|------------|----------------|------------7---|5---------------| 
G|3-------6---|7-----2---------|3-----------5---|3---------------| 
D|1-------4---|5-----0---------|1---------------|------0---------| 
G|------------|----------------|----------------|------0---------| 

(Guitar 2) 
d|-------------|----------------|-----------------|-----------------| 
A|-------------|----------------|-----------------|-----------------| 
F|10------13---|14----9---------|10----------19---|17---------------| 
C|-------------|----------------|-----------------|-----------------| 
G|8-------11---|12----7---------|8-----------17---|15---------------| 
D|-------------|----------------|-----------------|------0----------| 
G|-------------|----------------|-----------------|------0----------| 

Build-Up 
(Guitar 1)                         1st Ending                       2nd Ending 
d|--------------------------------|--------------------------------|--------------------------------| 
A|--------------------------------|--------------------------------|--------------------------------| 
F|--------------------------------|--------------------------------|--------------------------------| 
C|--------------------------------|--------------------------------|--------------------------------| 
G|--------------------------------|--------------------4-4-----3-3-|----4-4-----3-3-----7-7-----8-8-| 
D|0-0-----0-0-0-0---------0-0-----|0-0---------0-0-1-1-----1-1-----|1-1-----1-1-----5-5-----6-6-----| 
G|0-0-----0-0-0-0---------0-0-----|0-0---------0-0-----------------|--------------------------------| 
  PM-|    PM-----|        PM-|     PM-|        PM-----|    PM-|     PM-|    PM-|    PM-|    PM-| 

(Guitar 2)                         1st Ending                       2nd Ending 
d|--------------------------------|--------------------------------|--------------------------------| 
A|--------------------------------|--------------------------------|--------------------------------| 
F|--------------------------------|--------------------------------|--------------------------------| 
C|----3p2---------3p2---------3p2-|----3p2-------------------------|--------------------------------| 
G|--------------------5p4---------|--------5p4---------4-4-----3-3-|----4-4-----3-3-----7-7-----8-8-| 
D|0-0-----0-0-0-0---------0-0-----|0-0---------0-0-1-1-----1-1-----|1-1-----1-1-----5-5-----6-6-----| 
G|0-0-----0-0-0-0---------0-0-----|0-0---------0-0-----------------|--------------------------------| 
  PM-|    PM-----|        PM-|     PM-|        PM-----|    PM-|     PM-|    PM-|    PM-|    PM-| 

Breakdown 
(Guitar 1)                         1st Ending                       2nd Ending 
d|--------------------------------|--------------------------------|--------------------------------| 
A|--------------------------------|--------------------------------|--------------------------------| 
F|--------------------------------|--------------------------------|--------------------------------| 
C|--------------------------------|--------------------------------|--------------------------------|(x2) 
G|--------------------------------|--------------------4-4-----3-3-|----4-4-----3-3-----7-7-----8-8-| 
D|0-0-----0-0-0-0---------0-0-----|0-0---------0-0-1-1-----1-1-----|1-1-----1-1-----5-5-----6-6-----| 
G|0-0-----0-0-0-0---------0-0-----|0-0---------0-0-----------------|--------------------------------| 
  PM-|    PM-----|        PM-|     PM-|        PM-----|    PM-|     PM-|    PM-|    PM-|    PM-| 

(Guitar 2) 
d|--------------------------------|--------------------------------| 
A|--------------------------------|--------------------------------| 
F|--------------------------------|--------------------------------| 
C|----------------3p2---------3p2-|----3p2-------------------------| 
G|--------------------5p4---------|--------5p4---------4-4-----3-3-| 
D|0-0-----0-0-0-0---------0-0-----|0-0---------0-0-1-1-----1-1-----| 
G|0-0-----0-0-0-0---------0-0-----|0-0---------0-0-----------------| 
  PM-|    PM-----|        PM-|     PM-|        PM-----|    PM-| 

d|--------------------------------|--------------------------------| 
A|--------------------------------|--------------------------------| 
F|--------------------------------|--------------------------------| 
C|----3p2---------3p2---------3p2-|--------------------------------|(x2) 
G|--------------------------------|----4-4-----3-3-----7-7-----8-8-| 
D|0-0-----0-0-0-0---------0-0-----|1-1-----1-1-----5-5-----6-6-----| 
G|0-0-----0-0-0-0---------0-0-----|--------------------------------| 
  PM-|    PM-----|        PM-|     PM-|    PM-|    PM-|    PM-| 

(Guitar 1 and 2)                   1st Ending                       2nd Ending 
d|--------------------------------|--------------------------------|--------------------------------| 
A|--------------------------------|--------------------------------|--------------------------------| 
F|--------------------------------|--------------------------------|--------------------------------| 
C|--------------------------------|--------------------------------|--------------------------------| 
G|--------------------------------|--------------------------------|----4-4-----3-3-----7-7-----8-8-| 
D|0-0-----0-0-0-0---------0-0-----|0-0-----0-0-0-0---------0-0-----|1-1-----1-1-----5-5-----6-6-----| 
G|0-0-----0-0-0-0---------0-0-----|0-0-----0-0-0-0---------0-0-----|--------------------------------| 
  PM-|    PM-----|        PM-|       PM-|    PM-----|        PM-|   PM-|    PM-|    PM-|    PM-| 

Outro 
(Guitar 1 and 2)                                        1st, 2nd, 3rd Ending  4th Ending 
d|------------------------|----------------------------|---------------------|--------------------| 
A|------------------------|----------------------------|---------------------|--------------------| 
F|------------------------|----------------------------|---------------------|--------------------| 
C|7-------------------7---|----------------7-----------|---------------------|--------------------| 
G|7-------------------7---|----------------7-----------|8------7-------------|8------7------------| 
D|5---0-0-0---0-0-0---5---|0-0-0---0-0-0---5---0-0-0---|8------7-------------|8------7------7-7-7-| 
G|----0-0-0---0-0-0-------|0-0-0---0-0-0-------0-0-0---|8------7-------------|8------7------7-7-7-| 
      PM-------------|     PM-------------|    PM-----|                                     PM---| 

***************************** 

| p  Pull Off 
| PM Palm Mute 

***************************** 
  

top 5 | fit for an autopsy
top rock'n roll
Outras músicas do artista letras do(a) Fit For An Autopsy
Top cifras »Top artistas »
Petaxxon Comunicação Online
Cifras.com.br - Melhor e mais completo site de cifras e tablaturas do Brasil
Mais de 1 milhão de acordes de músicas cadastradas desde 2003
As informações contidas no nosso site são colaborações de seus usuários e podem conter erros, sendo assim, não nos responsabilizamos sobre nenhuma destas.
close
menos
mais
close
Cor dos acordes:

Cor da letra:

 

save
close
close
 
redimensionar