Cifras e Tablaturas
Foo Fighters

Foo Fighters

All My Life

Ano: 2002
Album : One By One

Cifras Cancelar Versão de Impressão
cifras

Foo Fighters - All My Life

fixar na tela  
Exibindo: vídeo-aula ver clipes redimensionar

Tom:

  
INTRO a x23 
"All my life I've been searching for something" 
e|-----------------| 
B|-----------------| 
G|-----------------| 
D|-----------------| 
A|-5-5---5-5-5---5-| 
E|-3-3---3-3-3---3-| 
   ............... 
INTRO b x1 
e|-----------------| 
B|-----------------| 
G|---------------4-| 
D|---------------4-| 
A|-5-5---5-5-5-----| 
E|-3-3---3-3-3-----| 
   ..........    h = harmonic 
PRE-VERSE x2 
e|-----------------|-----------------|-----------------|-----------------| 
B|-----------------|-----------------|-----------------|-----------------| 
G|-3-3-3-3-3-3---3-|-3-3-3-3---5-5-5-|-3-3-3-3-3-3---3-|-3-3-3-3---6-6-6-| 
D|-5-5-5-5-5-5---5-|-5-5-5-5---7-7-7-|-5-5-5-5-5-5---5-|-5-5-5-5---8-8-8-| 
A|-5-5-5-5-5-5---5-|-5-5-5-5---7-7-7-|-5-5-5-5-5-5---5-|-5-5-5-5---8-8-8-| 
E|-3-3-3-3-3-3---3-|-3-3-3-3---5-5-5-|-3-3-3-3-3-3---3-|-3-3-3-3---6-6-6-| 
VERSE a x3 
"Come down, don't you resist, you have such a delicate wrist..." 
e|-----------------|-----------------|-----------------|-----------------| 
B|-----------------|-----------------|-----------------|-----------------| 
G|----3-------3----|-3-------3-5-5-5-|----3-------3----|-3-------3-6-6-6-| 
D|----5-------5----|-5-------5-7-7-7-|----5-------5----|-3-------5-8-8-8-| 
A|-----------------|-----------7-7-7-|-----------------|-----------8-8-8-| 
E|-3-----3-3-----3-|----3-3----5-5-5-|-3-----3-3-----3-|----3-3----6-6-6-| 
   .     ...     .      ...            .     ...     .      ... 
VERSE b x1 
e|-----------------|-----------------|-----------------|-----------------| 
B|-----------------|-----------------|-----------------|-----------------| 
G|----3-------3----|-3-------3-5-5-5-|----3-------3----|-3-------3-------| 
D|----5-------5----|-3-------5-7-7-7-|----5-------5----|-3-------5-------| 
A|-----------------|-----------7-7-7-|-----------------|-----------------| 
E|-3-----3-3-----3-|----3-3----5-5-5-|-3-----3-3-----3-|----3-3----------| 
   .     ...     .      ...            .     ...     .      ... 
INTRO a x2 
"One by one hidden up my sleeve..." 
e|-----------------| 
B|-----------------| 
G|-----------------| 
D|-----------------| 
A|-5-5---5-5-5---5-| 
E|-3-3---3-3-3---3-| 
   ............... 
CHORUS x2 
"Hey, don't let it go to waste, I love it but I hate the taste..." 
e|-3---3---3-3-3-3-|-3-3-3---3---3-3-|-3---3---3-3-3-3-|-3-3-3---3---3-3-| 
B|-4---4---4-4-4-4-|-4-4-4---4---4-4-|-3---3---3-3-3-3-|-3-3-3---3---3-3-| 
G|-3---3---3-3-3-3-|-3-3-3---3---3-3-|-3---3---3-3-3-3-|-3-3-3---3---3-3-| 
D|-5---5---5-5-5-5-|-5-5-5---5---5-5-|-5---5---5-5-5-5-|-5-5-5---5---5-5-| 
A|-6---6---6-6-6-6-|-6-6-6---6---6-6-|-5---5---5-5-5-5-|-5-5-5---5---5-5-| 
E|-3---3---3-3-3-3-|-3-3-3---3---3-3-|-3---3---3-3-3-3-|-3-3-3---3---3-3-| 
e|-0---0---0-0-0-0-|-1---1---1---1-1-|-----------------| 
B|-1---1---1-1-1-1-|-1---1---1---1-1-|-3-3-3-3-3-3-3-3-| 
G|-0---0---0-0-0-0-|-2---2---2---2-2-|-3-3-3-3-3-3-3-3-| 
D|-2---2---2-2-2-2-|-3---3---3---3-3-|-3-3-3-3-3-3-3-3-| 
A|-3---3---3-3-3-3-|-3---3---3---3-3-|-1-1-1-1-1-1-1-1-| 
E|-----------------|-1---1---1---1-1-|-----------------| 
PRE-VERSE x1 
e|-----------------|-----------------|-----------------|-----------------| 
B|-----------------|-----------------|-----------------|-----------------| 
G|-3-3-3-3-3-3---3-|-3-3-3-3---5-5-5-|-3-3-3-3-3-3---3-|-3-3-3-3---6-6-6-| 
D|-5-5-5-5-5-5---5-|-5-5-5-5---7-7-7-|-5-5-5-5-5-5---5-|-5-5-5-5---8-8-8-| 
A|-5-5-5-5-5-5---5-|-5-5-5-5---7-7-7-|-5-5-5-5-5-5---5-|-5-5-5-5---8-8-8-| 
E|-3-3-3-3-3-3---3-|-3-3-3-3---5-5-5-|-3-3-3-3-3-3---3-|-3-3-3-3---6-6-6-| 
VERSE a x3 
"Will I find a believer? Another one who believes..." 
e|-----------------|-----------------|-----------------|-----------------| 
B|-----------------|-----------------|-----------------|-----------------| 
G|----3-------3----|-3-------3-5-5-5-|----3-------3----|-3-------3-6-6-6-| 
D|----5-------5----|-5-------5-7-7-7-|----5-------5----|-3-------5-8-8-8-| 
A|-----------------|-----------7-7-7-|-----------------|-----------8-8-8-| 
E|-3-----3-3-----3-|----3-3----5-5-5-|-3-----3-3-----3-|----3-3----6-6-6-| 
   .     ...     .      ...            .     ...     .      ... 
VERSE b x1 
e|-----------------|-----------------|-----------------|-----------------| 
B|-----------------|-----------------|-----------------|-----------------| 
G|----3-------3----|-3-------3-5-5-5-|----3-------3----|-3-------3-------| 
D|----5-------5----|-3-------5-7-7-7-|----5-------5----|-3-------5-------| 
A|-----------------|-----------7-7-7-|-----------------|-----------------| 
E|-3-----3-3-----3-|----3-3----5-5-5-|-3-----3-3-----3-|----3-3----------| 
   .     ...     .      ...            .     ...     .      ... 
INTRO a x2 
"One by one hidden up my sleeve..." 
e|-----------------| 
B|-----------------| 
G|-----------------| 
D|-----------------| 
A|-5-5---5-5-5---5-| 
E|-3-3---3-3-3---3-| 
   ............... 
CHORUS x2 
"Hey, don't let it go to waste, I love it but I hate the taste..." 
e|-3---3---3-3-3-3-|-3-3-3---3---3-3-|-3---3---3-3-3-3-|-3-3-3---3---3-3-| 
B|-4---4---4-4-4-4-|-4-4-4---4---4-4-|-3---3---3-3-3-3-|-3-3-3---3---3-3-| 
G|-3---3---3-3-3-3-|-3-3-3---3---3-3-|-3---3---3-3-3-3-|-3-3-3---3---3-3-| 
D|-5---5---5-5-5-5-|-5-5-5---5---5-5-|-5---5---5-5-5-5-|-5-5-5---5---5-5-| 
A|-6---6---6-6-6-6-|-6-6-6---6---6-6-|-5---5---5-5-5-5-|-5-5-5---5---5-5-| 
E|-3---3---3-3-3-3-|-3-3-3---3---3-3-|-3---3---3-3-3-3-|-3-3-3---3---3-3-| 
e|-0---0---0-0-0-0-|-1---1---1---1-1-|-----------------| 
B|-1---1---1-1-1-1-|-1---1---1---1-1-|-3-3-3-3-3-3-3-3-| 
G|-0---0---0-0-0-0-|-2---2---2---2-2-|-3-3-3-3-3-3-3-3-| 
D|-2---2---2-2-2-2-|-3---3---3---3-3-|-3-3-3-3-3-3-3-3-| 
A|-3---3---3-3-3-3-|-3---3---3---3-3-|-1-1-1-1-1-1-1-1-| 
E|-----------------|-1---1---1---1-1-|-----------------| 
PRE-VERSE x1 
e|-----------------|-----------------|-----------------|-----------------| 
B|-----------------|-----------------|-----------------|-----------------| 
G|-3-3-3-3-3-3---3-|-3-3-3-3---5-5-5-|-3-3-3-3-3-3---3-|-3-3-3-3---6-6-6-| 
D|-5-5-5-5-5-5---5-|-5-5-5-5---7-7-7-|-5-5-5-5-5-5---5-|-5-5-5-5---8-8-8-| 
A|-5-5-5-5-5-5---5-|-5-5-5-5---7-7-7-|-5-5-5-5-5-5---5-|-5-5-5-5---8-8-8-| 
E|-3-3-3-3-3-3---3-|-3-3-3-3---5-5-5-|-3-3-3-3-3-3---3-|-3-3-3-3---6-6-6-| 
(for this next section, listen to the song to get the exact number of times each part is played) 
BREAKDOWN a x34 
"All my life I've been searching for something..." 
e|-----------------| 
B|-----------------| 
G|-----------------| 
D|-----------------| 
A|-5-5---5-5-5---5-| 
E|-3-3---3-3-3---3-| 
   ............... 
with guitar 2 
e|-----------------| 
B|-----------------| 
G|-------3-------3-| 
D|-------3-------3-| 
A|-----------------| 
E|-----------------| 
         h h h = harmonic 
then guitar 2... 
e|-----------------| 
B|-----------------| 
G|--5-bend 7-------| 
D|-----------------| 
A|-----------------| 
E|-----------------| 
..."done, done and I'm on the next one..." 
BREAKDOWN b x8 
"Done, done and I'm on to the next one!!!!" 
e|-----------------|-----------------| 
B|-----------------|-----------------| 
G|-3-3---3-3-3---3-|-3-3---3-3-3---3-| 
D|-5-5---5-5-5---5-|-5-5---5-5-5---5-| 
A|-5-5---5-5-5---5-|-5-5---5-5-5---5-| 
E|-3-3---3-3-3---3-|-3-3---3-3-3---3-| 
CHORUS x2 
"Hey, don't let it go to waste, I love it but I hate the taste..." 
e|-3---3---3-3-3-3-|-3-3-3---3---3-3-|-3---3---3-3-3-3-|-3-3-3---3---3-3-| 
B|-4---4---4-4-4-4-|-4-4-4---4---4-4-|-3---3---3-3-3-3-|-3-3-3---3---3-3-| 
G|-3---3---3-3-3-3-|-3-3-3---3---3-3-|-3---3---3-3-3-3-|-3-3-3---3---3-3-| 
D|-5---5---5-5-5-5-|-5-5-5---5---5-5-|-5---5---5-5-5-5-|-5-5-5---5---5-5-| 
A|-6---6---6-6-6-6-|-6-6-6---6---6-6-|-5---5---5-5-5-5-|-5-5-5---5---5-5-| 
E|-3---3---3-3-3-3-|-3-3-3---3---3-3-|-3---3---3-3-3-3-|-3-3-3---3---3-3-| 
e|-0---0---0-0-0-0-|-1---1---1---1-1-|-----------------| 
B|-1---1---1-1-1-1-|-1---1---1---1-1-|-3-3-3-3-3-3-3-3-| 
G|-0---0---0-0-0-0-|-2---2---2---2-2-|-3-3-3-3-3-3-3-3-| 
D|-2---2---2-2-2-2-|-3---3---3---3-3-|-3-3-3-3-3-3-3-3-| 
A|-3---3---3-3-3-3-|-3---3---3---3-3-|-1-1-1-1-1-1-1-1-| 
E|-----------------|-1---1---1---1-1-|-----------------| 
OUTRO x2 
Guitar 1 plays same as PRE-VERSE 
e|-----------------|-----------------|-----------------|-----------------| 
B|-----------------|-----------------|-----------------|-----------------| 
G|-3-3-3-3-3-3---3-|-3-3-3-3---5-5-5-|-3-3-3-3-3-3---3-|-3-3-3-3---6-6-6-| 
D|-5-5-5-5-5-5---5-|-5-5-5-5---7-7-7-|-5-5-5-5-5-5---5-|-5-5-5-5---8-8-8-| 
A|-5-5-5-5-5-5---5-|-5-5-5-5---7-7-7-|-5-5-5-5-5-5---5-|-5-5-5-5---8-8-8-| 
E|-3-3-3-3-3-3---3-|-3-3-3-3---5-5-5-|-3-3-3-3-3-3---3-|-3-3-3-3---6-6-6-| 
Guitar 2 plays 
e|-6-6-6-6-6-6---6-|-6-6-6-6---6---8-|-6-6-6-6-6-6---6-|-6-6-6-6---6---9-| 
B|-0-0-0-0-0-0---0-|-0-0-0-0---0---8-|-0-0-0-0-0-0---0-|-0-0-0-0---0---9-| 
G|-----------------|-----------------|-----------------|-----------------| 
D|-----------------|-----------------|-----------------|-----------------| 
A|-----------------|-----------------|-----------------|-----------------| 
E|-----------------|-----------------|-----------------|-----------------| 
END ON x1 
e|-----------------| 
B|-----------------| 
G|-----------------| 
D|--5-5------------| 
A|--5-5------------| 
E|--3-3------------| 

  

top 5 | foo fighters
top rock'n roll
Outras músicas do artista letras do(a) Foo Fighters
3.
Run
5.
Walk
Top cifras »Top artistas »
Petaxxon Comunicação Online
Cifras.com.br - Melhor e mais completo site de cifras e tablaturas do Brasil
Mais de 1 milhão de acordes de músicas cadastradas desde 2003
As informações contidas no nosso site são colaborações de seus usuários e podem conter erros, sendo assim, não nos responsabilizamos sobre nenhuma destas.
close
menos
mais
close
Cor dos acordes:

Cor da letra:

 

save
close
close
 
redimensionar