Cifras e Tablaturas
Foo Fighters

Foo Fighters

Happy Ever After Zero Hour

Cifras Cancelar Versão de Impressão
cifras

Foo Fighters - Happy Ever After Zero Hour

fixar na tela  
Exibindo: vídeo-aula ver clipes redimensionar

Tom:

  
verse 1 

E|------------|----------|----------|----------|--------2-----------| 
B|---11----11-|---9----9-|---7----7-|---4----4-|---3---------3----3-| 
G|------------|----------|----------|----------|--------------------| 
D|------------|----------|----------|----------|--------------------| 
A|-9-----9----|-8----8---|-6----6---|-2----2---|-2----2----2----2---| 
E|------------|----------|----------|----------|--------------------| 

E|--------------------------| 
B|----11----11----11-----11-| 
G|--------------------------| 
D|--------------------------| 
A|-/9-----9-----9-----------| 
E|--------------------9--11-| 

E|------------|----------|----------|----------|--------2-----------|-------2---------| 
B|---11----11-|---9----9-|---7----7-|---4----4-|---3---------3----3-|---3-------3---3-| 
G|------------|----------|----------|----------|--------------------|-----------------| 
D|------------|----------|----------|----------|--------------------|-2---2---2---2---| 
A|-9-----9----|-8----8---|-6----6---|-2----2---|-2----2----2----2---|-----------------| 
E|------------|----------|----------|----------|--------------------|-----------------| 

E|------------------|--------------------| 
B|---2---2----------|---3----3----3----3-| 
G|---2---2----0---0-|---2----2----2----2-| 
D|------------------|--------------------| 
A|-0---0----0---0---|-0----0----0--------| 
E|------------------|----------------0---| 


verse 2 

E|-------------|----------|----------|----------|--------2-----------| 
B|----11----11-|---9----9-|---7----7-|---4----4-|---3---------3----3-| 
G|-------------|----------|----------|----------|--------------------| 
D|-------------|----------|----------|----------|--------------------| 
A|-/9-----9----|-8----8---|-6----6---|-2----2---|-2----2----2----2---| 
E|-------------|----------|----------|----------|--------------------| 

E|--------------------------| 
B|----11----11----11-----11-| 
G|--------------------------| 
D|--------------------------| 
A|-/9-----9-----9-----------| 
E|--------------------9--11-| 

E|------------|----------|----------|----------|--------2-----------|-------2---------| 
B|---11----11-|---9----9-|---7----7-|---4----4-|---3---------3----3-|---3-------3---3-| 
G|------------|----------|----------|----------|--------------------|-----------------| 
D|------------|----------|----------|----------|--------------------|-2---2---2---2---| 
A|-9-----9----|-8----8---|-6----6---|-2----2---|-2----2----2----2---|-----------------| 
E|------------|----------|----------|----------|--------------------|-----------------| 

E|------------------|--------------------| 
B|---2---2----------|---3----3----3----3-| 
G|---2---2----0---0-|---2----2----2----2-| 
D|------------------|--------------------| 
A|-0---0----0---0---|-0----0----0--------| 
E|------------------|----------------0---| 


Pre-Chorus 

E|-------2--------2-|-------2--------3-|-------2--------2-|-------2--------3-| 
B|------------------|---3--------3-----|------------------|---3--------3-----| 
G|---3--------3-----|------------------|---3--------3-----|------------------| 
D|------------------|------------------|------------------|------------------| 
A|------------------|-2---2----2---2---|------------------|-2---2----2---2---| 
E|-2---2----2---2---|------------------|-2---2----2---2---|------------------| 


E|-------------0------|-----------------------|---------------------| 
B|--------3---------3-|----2----2-----3----3--|---5----5----7----7--| 
G|---1----1---------1-|---(0)--(0)---(0)--(0)-|--(0)--(0)--(0)--(0)-| 
D|---2----------------|----3----3-----4----4--|---5----5----7----7--| 
A|--------------------|-0-----0-----0----0----|-0----0----0----0----| 
E|-0----0----0----0---|-----------------------|---------------------| 


Chorus 

E|---2----2----3----3-|--------------------|---2----2----3----3-|---------------------| 
B|---3----3----3----3-|---2----0----2----2-|---3----3----3----3-|---2----0----2----0--| 
G|--------------------|---2---(2)---2----2-|--------------------|---2---(2)---2---(2)-| 
D|-0----0-------------|--------------------|-0----0-------------|---------------------| 
A|-----------3----3---|-0----0----0----0---|-----------3----3---|-0----0----0----0----| 
E|--------------------|--------------------|--------------------|---------------------| 

E|--------3---------3-|--------3---------3-| 
B|--------3---------3-|--------3---------3-| 
G|---0---------0------|---0---------0------| 
D|--------------------|--------------------| 
A|--------------------|--------------------| 
E|-3----3----3----3---|-0----0----0----0---| 

E|-----------------------|---------------------| 
B|----2----2-----3----3--|---5----5----7----7--| 
G|---(0)--(0)---(0)--(0)-|--(0)--(0)--(0)--(0)-| 
D|----3----3-----4----4--|---5----5----7----7--| 
A|-0-----0-----0----0----|-0----0----0----0----| 
E|-----------------------|---------------------| 

E|---2----2----3----3-|--------------------|---2----2----3----3-|---------------------| 
B|---3----3----3----3-|---2----0----2---3--|---3----3----3----3-|---2----0----2----3--| 
G|--------------------|---2---(2)---2--(2)-|--------------------|---2---(2)---2---(2)-| 
D|-0----0-------------|--------------------|-0----0-------------|---------------------|  
A|-----------3----3---|-0----0----0----0---|-----------3----3---|-0----0----0----0----| 
E|--------------------|--------------------|--------------------|---------------------| 

E|--------3---------3-|--------3---------3-|----------------------|--------------------| 
B|--------3---------3-|--------3---------3-|----2----2-----3----3-|---5----5----7----7-| 
G|---0---------0------|---0---------0------|----0----0-----0----0-|---0----0----0----0-| 
D|--------------------|--------------------|----3----3-----4----4-|---5----5----7----7-| 
A|--------------------|--------------------|-0-----0-----0----0---|-0----0----0----0---| 
E|-3----3----3----3---|-0----0----0----0---|----------------------|--------------------| 


Solo 

E|------------|----------|----------|----------|--------2-----------|-------2---------| 
B|---11----11-|---9----9-|---7----7-|---4----4-|---3---------3----3-|---3-------3---3-| 
G|------------|----------|----------|----------|--------------------|-----------------| 
D|------------|----------|----------|----------|--------------------|-2---2---2---2---| 
A|-9-----9----|-8----8---|-6----6---|-2----2---|-2----2----2----2---|-----------------| 
E|------------|----------|----------|----------|--------------------|-----------------| 

E|------------------|--------------------| 
B|---2---2----------|---3----3----3----3-| 
G|---2---2----0---0-|---2----2----2----2-| 
D|------------------|--------------------| 
A|-0---0----0---0---|-0----0----0--------| 
E|------------------|----------------0---| 


Pre-Chorus 

E|-------2--------2-|-------2--------3-|-------2--------2-|-------2--------3-| 
B|------------------|---3--------3-----|------------------|---3--------3-----| 
G|---3--------3-----|------------------|---3--------3-----|------------------| 
D|------------------|------------------|------------------|------------------| 
A|------------------|-2---2----2---2---|------------------|-2---2----2---2---| 
E|-2---2----2---2---|------------------|-2---2----2---2---|------------------| 

E|-------------0------|-----------------------|---------------------| 
B|--------3---------3-|----2----2-----3----3--|---5----5----7----7--| 
G|---1----1---------1-|---(0)--(0)---(0)--(0)-|--(0)--(0)--(0)--(0)-| 
D|---2----------------|----3----3-----4----4--|---5----5----7----7--| 
A|--------------------|-0-----0-----0----0----|-0----0----0----0----| 
E|-0----0----0----0---|-----------------------|---------------------| 


Chorus 

E|---2----2----3----3-|--------------------|---2----2----3----3-|---------------------| 
B|---3----3----3----3-|---2----0----2----2-|---3----3----3----3-|---2----0----2----0--| 
G|--------------------|---2---(2)---2----2-|--------------------|---2---(2)---2---(2)-| 
D|-0----0-------------|--------------------|-0----0-------------|---------------------| 
A|-----------3----3---|-0----0----0----0---|-----------3----3---|-0----0----0----0----| 
E|--------------------|--------------------|--------------------|---------------------| 

E|--------3---------3-|--------3---------3-| 
B|--------3---------3-|--------3---------3-| 
G|---0---------0------|---0---------0------| 
D|--------------------|--------------------| 
A|--------------------|--------------------| 
E|-3----3----3----3---|-0----0----0----0---| 

E|-----------------------|---------------------| 
B|----2----2-----3----3--|---5----5----7----7--| 
G|---(0)--(0)---(0)--(0)-|--(0)--(0)--(0)--(0)-| 
D|----3----3-----4----4--|---5----5----7----7--| 
A|-0-----0-----0----0----|-0----0----0----0----| 
E|-----------------------|---------------------| 

E|---2----2----3----3-|--------------------|---2----2----3----3-|---------------------| 
B|---3----3----3----3-|---2----0----2---3--|---3----3----3----3-|---2----0----2----3--| 
G|--------------------|---2---(2)---2--(2)-|--------------------|---2---(2)---2---(2)-| 
D|-0----0-------------|--------------------|-0----0-------------|---------------------|  
A|-----------3----3---|-0----0----0----0---|-----------3----3---|-0----0----0----0----| 
E|--------------------|--------------------|--------------------|---------------------| 

E|--------3---------3-|--------3---------3-| 
B|--------3---------3-|--------3---------3-| 
G|---0---------0------|---0---------0------| 
D|--------------------|--------------------| 
A|--------------------|--------------------| 
E|-3----3----3----3---|-0----0----0----0---| 

E|-----------------------|---------------------| 
B|----2----2-----3----3--|---5----5----7----7--| 
G|---(0)--(0)---(0)--(0)-|--(0)--(0)--(0)--(0)-| 
D|----3----3-----4----4--|---5----5----7----7--| 
A|-0-----0-----0----0----|-0----0----0----0----| 
E|-----------------------|---------------------| 

E|------------|----------|----------|----------|--------2-----------|-------2---------| 
B|---11----11-|---9----9-|---7----7-|---4----4-|---3---------3----3-|---3-------3---3-| 
G|------------|----------|----------|----------|--------------------|-----------------| 
D|------------|----------|----------|----------|--------------------|-2---2---2---2---| 
A|-9-----9----|-8----8---|-6----6---|-2----2---|-2----2----2----2---|-----------------| 
E|------------|----------|----------|----------|--------------------|-----------------| 

E|------------------|--------------------| 
B|---2---2----------|---3----3----3----3-| 
G|---2---2----0---0-|---2----2----2----2-| 
D|------------------|--------------------| 
A|-0---0----0---0---|-0----0----0--------| 
E|------------------|----------------0---| 
  

top 5 | foo fighters
top rock'n roll
Outras músicas do artista letras do(a) Foo Fighters
4.
Walk
Top cifras »Top artistas »
Petaxxon Comunicação Online
Cifras.com.br - Melhor e mais completo site de cifras e tablaturas do Brasil
Mais de 1 milhão de acordes de músicas cadastradas desde 2003
As informações contidas no nosso site são colaborações de seus usuários e podem conter erros, sendo assim, não nos responsabilizamos sobre nenhuma destas.
close
menos
mais
close
Cor dos acordes:

Cor da letra:

 

save
close
close
 
redimensionar