Cifras e Tablaturas
Foo Fighters

Foo Fighters

Make It Right

Cifras Cancelar Versão de Impressão
cifras

Foo Fighters - Make It Right

fixar na tela  
Exibindo: vídeo-aula ver clipes redimensionar

Tom:

  
Intro 

E|--------------------------|---------------------|--------------------------|---------------| 
B|--------------------------|---------------------|--------------------------|---------------| 
G|--------------------------|---------------------|--------------------------|---------------| 
D|--------------------------|---------------------|--------------------------|---------------| 
A|-7------------------------|-7-------------------|-7------------------------|-7-------------| 
E|---0--3~-0-5~-0-3-3-0-5h7-|---0--0-3~-0-5~-0-3~-|---0--3~-0-5~-0-3-3-0-5h7-|---0--0-3~-0-5-| 

E|--------------------------|---------------------|--------------------------|-----------------------------| 
B|--------------------------|---------------------|--------------------------|-----------------------------| 
G|--------------------------|---------------------|--------------------------|---------------7-7-7-7-7-7-7-| 
D|--------------------------|---------------------|--------------------------|---------------7-7-7-7-7-7-7-| 
A|-7------------------------|-7-------------------|-7------------------------|-7-------------5-5-5-5-5-5-5-| 
E|---0--3~-0-5~-0-3-3-0-5h7-|---0--0-3~-0-5~-0-3~-|---0--3~-0-5~-0-3-3-0-5h7-|---0--0-3~-0-5---------------| 

Primeira Parte 

E|--------------------------|---------------------|--------------------------|---------------| 
B|--------------------------|---------------------|--------------------------|---------------| 
G|--------------------------|---------------------|--------------------------|---------------| 
D|--------------------------|---------------------|--------------------------|---------------| 
A|-7------------------------|-7-------------------|-7------------------------|-7-------------| 
E|---0--3~-0-5~-0-3-3-0-5h7-|---0--0-3~-0-5~-0-3~-|---0--3~-0-5~-0-3-3-0-5h7-|---0--0-3~-0-5-| 

E|--------------------------|---------------------|--------------------------|-----------------------------| 
B|--------------------------|---------------------|--------------------------|-----------------------------| 
G|--------------------------|---------------------|--------------------------|---------------7-7-7-7-7-7-7-| 
D|--------------------------|---------------------|--------------------------|---------------7-7-7-7-7-7-7-| 
A|-7------------------------|-7-------------------|-7------------------------|-7-------------5-5-5-5-5-5-5-| 
E|---0--3~-0-5~-0-3-3-0-5h7-|---0--0-3~-0-5~-0-3~-|---0--3~-0-5~-0-3-3-0-5h7-|---0--0-3~-0-5---------------| 

E|--------------------------|---------------------|--------------------------|---------------| 
B|--------------------------|---------------------|--------------------------|---------------| 
G|--------------------------|---------------------|--------------------------|---------------| 
D|--------------------------|---------------------|--------------------------|---------------| 
A|-7------------------------|-7-------------------|-7------------------------|-7-------------| 
E|---0--3~-0-5~-0-3-3-0-5h7-|---0--0-3~-0-5~-0-3~-|---0--3~-0-5~-0-3-3-0-5h7-|---0--0-3~-0-5-| 

E|--------------------------|---------------------|--------------------------|-------------------------------| 
B|--------------------------|---------------------|--------------------------|-------------------------------| 
G|--------------------------|---------------------|--------------------------|---------------7-7-7-7-7--6--5-| 
D|--------------------------|---------------------|--------------------------|---------------7-7-7-7-7--6--5-| 
A|-7------------------------|-7-------------------|-7------------------------|-7-------------5-5-5-5-5--4--3-| 
E|---0--3~-0-5~-0-3-3-0-5h7-|---0--0-3~-0-5~-0-3~-|---0--3~-0-5~-0-3-3-0-5h7-|---0--0-3~-0-5-----------------| 

Refrão 

E|-11-11--x--11--x--11--x-11--11--11--10---9-|--8--8--x--8--x--8--x--8--8--8--7--6-| 
B|-12-12--x--12--x--12--x-12--12--12--11--10-|--9--9--x--9--x--9--x--9--9--9--8--7-| 
G|-------------------------------------------|-------------------------------------| 
D|-------------------------------------------|-------------------------------------| 
A|-------------------------------------------|-------------------------------------| 
E|-------------------------------------------|-------------------------------------| 

E|--5--5--x--5--x--5--x--5--5--5--4--3-|--2--2--x--2--x--2--x--2--2--2~-| 
B|--6--6--x--6--x--6--x--6--6--6--5--4-|--3--3--x--3--x--3--x--3--3--3~-| 
G|-------------------------------------|--------------------------------| 
D|-------------------------------------|--------------------------------| 
A|-------------------------------------|--------------------------------| 
E|-------------------------------------|--------------------------------| 

E|-11-11--x--11--x--11--x-11--11--11--10---9-|--8--8--x--8--x--8--x--8--8--8--7--6-| 
B|-12-12--x--12--x--12--x-12--12--12--11--10-|--9--9--x--9--x--9--x--9--9--9--8--7-| 
G|-------------------------------------------|-------------------------------------| 
D|-------------------------------------------|-------------------------------------| 
A|-------------------------------------------|-------------------------------------| 
E|-------------------------------------------|-------------------------------------| 

E|--5--5--x--5--x--5--x--5--5--5--4--3-|--2--2--x--2--x--2--x--2--2--2-2-2-| 
B|--6--6--x--6--x--6--x--6--6--6--5--4-|--3--3--x--3--x--3--x--3--3--3-3-3-| 
G|-------------------------------------|-----------------------------------| 
D|-------------------------------------|-----------------------------------| 
A|-------------------------------------|-----------------------------------| 
E|-------------------------------------|-----------------------------------| 

Ponte 

E|---------------------------------|---------------------|--------------------------| 
B|---------------------------------|---------------------|--------------------------| 
G|---------------------------------|---------------------|--------------------------| 
D|---------------------------------|---------------------|--------------------------| 
A|--------7------------------------|-7-------------------|-7------------------------| 
E|-5-6-7----0--3~-0-5~-0-3-3-0-5h7-|---0--0-3~-0-5~-0-3~-|---0--3~-0-5~-0-3-3-0-5h7-| 

E|-----------------------------| 
B|-----------------------------| 
G|---------------7-7-7-7-7-7-7-| 
D|---------------7-7-7-7-7-7-7-| 
A|-7-------------5-5-5-5-5-5-5-| 
E|---0--0-3~-0-5---------------| 

Segunda Parte 

E|--------------------------|---------------------|--------------------------|-----------------------------| 
B|--------------------------|---------------------|--------------------------|-----------------------------| 
G|--------------------------|---------------------|--------------------------|---------------7-7-7-7-7-7-7-| 
D|--------------------------|---------------------|--------------------------|---------------7-7-7-7-7-7-7-| 
A|-7------------------------|-7-------------------|-7------------------------|-7-------------5-5-5-5-5-5-5-| 
E|---0--3~-0-5~-0-3-3-0-5h7-|---0--0-3~-0-5~-0-3~-|---0--3~-0-5~-0-3-3-0-5h7-|---0--0-3~-0-5---------------| 

E|--------------------------|---------------------|--------------------------|-------------------------------| 
B|--------------------------|---------------------|--------------------------|-------------------------------| 
G|--------------------------|---------------------|--------------------------|---------------7-7-7-7-7--6--5-| 
D|--------------------------|---------------------|--------------------------|---------------7-7-7-7-7--6--5-| 
A|-7------------------------|-7-------------------|-7------------------------|-7-------------5-5-5-5-5--4--3-| 
E|---0--3~-0-5~-0-3-3-0-5h7-|---0--0-3~-0-5~-0-3~-|---0--3~-0-5~-0-3-3-0-5h7-|---0--0-3~-0-5-----------------| 

Refrão 

E|-11-11--x--11--x--11--x-11--11--11--10---9-|--8--8--x--8--x--8--x--8--8--8--7--6-| 
B|-12-12--x--12--x--12--x-12--12--12--11--10-|--9--9--x--9--x--9--x--9--9--9--8--7-| 
G|-------------------------------------------|-------------------------------------| 
D|-------------------------------------------|-------------------------------------| 
A|-------------------------------------------|-------------------------------------| 
E|-------------------------------------------|-------------------------------------| 

E|--5--5--x--5--x--5--x--5--5--5--4--3-|--2--2--x--2--x--2--x--2--2--2~-| 
B|--6--6--x--6--x--6--x--6--6--6--5--4-|--3--3--x--3--x--3--x--3--3--3~-| 
G|-------------------------------------|--------------------------------| 
D|-------------------------------------|--------------------------------| 
A|-------------------------------------|--------------------------------| 
E|-------------------------------------|--------------------------------| 

E|-11-11--x--11--x--11--x-11--11--11--10---9-|--8--8--x--8--x--8--x--8--8--8--7--6-| 
B|-12-12--x--12--x--12--x-12--12--12--11--10-|--9--9--x--9--x--9--x--9--9--9--8--7-| 
G|-------------------------------------------|-------------------------------------| 
D|-------------------------------------------|-------------------------------------| 
A|-------------------------------------------|-------------------------------------| 
E|-------------------------------------------|-------------------------------------| 

E|--5--5--x--5--x--5--x--5--5--5--4--3-|--2--2--x--2--x--2--x--2--2--2~-| 
B|--6--6--x--6--x--6--x--6--6--6--5--4-|--3--3--x--3--x--3--x--3--3--3~-| 
G|-------------------------------------|--------------------------------| 
D|-------------------------------------|--------------------------------| 
A|-------------------------------------|--------------------------------| 
E|-------------------------------------|--------------------------------| 

Solo 

E|--------------------|-------------------|-----------| 
B|--------------------|-------------------|-----------| 
G|--------------------|-------------------|-----------| 
D|--------------------|-------------------|--7-6----7-| 
A|--------------------|-----------9h10h11-|-------9---| 
E|--0---5h6h7--8h9h10-|-10h11h12----------|-----------| 

E|---------------|-------------------|----------------| 
B|---------------|-------------------|----------------| 
G|---------------|-------------------|----------------| 
D|---------------|-------------------|-9h10/12--14\12-| 
A|---------------|-----------9h10h11-|----------------| 
E|-5h6h7--8h9h10-|-10h11h12----------|----------------| 

E|--------------------|-------------------|-----------| 
B|--------------------|-------------------|-----------| 
G|--------------------|-------------------|-----------| 
D|--------------------|-------------------|--7-6----7-| 
A|--------------------|-----------9h10h11-|-------9---| 
E|--0---5h6h7--8h9h10-|-10h11h12----------|-----------| 

E|---------------|-------------------|----------------| 
B|---------------|-------------------|----------------| 
G|---------------|-------------------|----------------| 
D|---------------|-------------------|-9h10/12--14\12-| 
A|---------------|-----------9h10h11-|----------------| 
E|-5h6h7--8h9h10-|-10h11h12----------|----------------| 

Ponte 

E|----------------------|---------------|--------------------------|-------------------------------| 
B|----------------------|---------------|--------------------------|-------------------------------| 
G|----------------------|---------------|--------------------------|---------------7-7-7-7-7--6--5-| 
D|----------------------|---------------|--------------------------|---------------7-7-7-7-7--6--5-| 
A|----------------------|-7-------------|-7------------------------|-7-------------5-5-5-5-5--4--3-| 
E|--3~-0-5~-0-3-3-0-5h7-|---0--0-3~-0-5-|---0--3~-0-5~-0-3-3-0-5h7-|---0--0-3~-0-5-----------------| 

Refrão 

E|-11-11--x--11--x--11--x-11--11--11--10---9-|--8--8--x--8--x--8--x--8--8--8--7--6-| 
B|-12-12--x--12--x--12--x-12--12--12--11--10-|--9--9--x--9--x--9--x--9--9--9--8--7-| 
G|-------------------------------------------|-------------------------------------| 
D|-------------------------------------------|-------------------------------------| 
A|-------------------------------------------|-------------------------------------| 
E|-------------------------------------------|-------------------------------------| 

E|--5--5--x--5--x--5--x--5--5--5--4--3-|--2--2--x--2--x--2--x--2--2--2~-| 
B|--6--6--x--6--x--6--x--6--6--6--5--4-|--3--3--x--3--x--3--x--3--3--3~-| 
G|-------------------------------------|--------------------------------| 
D|-------------------------------------|--------------------------------| 
A|-------------------------------------|--------------------------------| 
E|-------------------------------------|--------------------------------| 

E|-11-11--x--11--x--11--x-11--11--11--10---9-|--8--8--x--8--x--8--x--8--8--8--7--6-| 
B|-12-12--x--12--x--12--x-12--12--12--11--10-|--9--9--x--9--x--9--x--9--9--9--8--7-| 
G|-------------------------------------------|-------------------------------------| 
D|-------------------------------------------|-------------------------------------| 
A|-------------------------------------------|-------------------------------------| 
E|-------------------------------------------|-------------------------------------| 

E|--5--5--x--5--x--5--x--5--5--5--4--3-|--2--2--x--2--x--2--x--2--2--2-2-2-| 
B|--6--6--x--6--x--6--x--6--6--6--5--4-|--3--3--x--3--x--3--x--3--3--3-3-3-| 
G|-------------------------------------|-----------------------------------| 
D|-------------------------------------|-----------------------------------| 
A|-------------------------------------|-----------------------------------| 
E|-------------------------------------|-----------------------------------| 

Final 

E|--------------------|-------------------|-----------|---------------|-------------------|----------------| 
B|--------------------|-------------------|-----------|---------------|-------------------|----------------| 
G|--------------------|-------------------|-----------|---------------|-------------------|----------------| 
D|--------------------|-------------------|--7-6----7-|---------------|-------------------|-9h10/12--14\12-| 
A|--------------------|-----------9h10h11-|-------9---|---------------|-----------9h10h11-|----------------| 
E|--0---5h6h7--8h9h10-|-10h11h12----------|-----------|-5h6h7--8h9h10-|-10h11h12----------|----------------| 

E|--------------------|-------------------|-----------|---------------|-------------------|----------------| 
B|--------------------|-------------------|-----------|---------------|-------------------|----------------| 
G|--------------------|-------------------|-----------|---------------|-------------------|----------------| 
D|--------------------|-------------------|--7-6----7-|---------------|-------------------|-9h10/12--14\12-| 
A|--------------------|-----------9h10h11-|-------9---|---------------|-----------9h10h11-|----------------| 
E|--0---5h6h7--8h9h10-|-10h11h12----------|-----------|-5h6h7--8h9h10-|-10h11h12----------|----------------| 

E|---------------|-------------------|----------------|---------------|-------------------|----------------| 
B|---------------|-------------------|----------------|---------------|-------------------|----------------| 
G|---------------|-------------------|----------------|---------------|-------------------|----------------| 
D|---------------|-------------------|-9h10/12--14\12-|---------------|-------------------|-9h10/12--14\12-| 
A|---------------|-----------9h10h11-|----------------|---------------|-----------9h10h11-|----------------| 
E|-5h6h7--8h9h10-|-10h11h12----------|----------------|-5h6h7--8h9h10-|-10h11h12----------|----------------| 

E|----------------------|---------------|--------------------------|-----------------------------| 
B|----------------------|---------------|--------------------------|-----------------------------| 
G|----------------------|---------------|--------------------------|---------------7-7-7-7-7-7-7-| 
D|----------------------|---------------|--------------------------|---------------7-7-7-7-7-7-7-| 
A|----------------------|-7-------------|-7------------------------|-7-------------5-5-5-5-5-5-5-| 
E|--3~-0-5~-0-3-3-0-5h7-|---0--0-3~-0-5-|---0--3~-0-5~-0-3-3-0-5h7-|---0--0-3~-0-5---------------| 
  

top 5 | foo fighters
top rock'n roll
Outras músicas do artista letras do(a) Foo Fighters
4.
Walk
Top cifras »Top artistas »
Petaxxon Comunicação Online
Cifras.com.br - Melhor e mais completo site de cifras e tablaturas do Brasil
Mais de 1 milhão de acordes de músicas cadastradas desde 2003
As informações contidas no nosso site são colaborações de seus usuários e podem conter erros, sendo assim, não nos responsabilizamos sobre nenhuma destas.
close
menos
mais
close
Cor dos acordes:

Cor da letra:

 

save
close
close
 
redimensionar