Cifras e Tablaturas
Cifras Cancelar Versão de Impressão
cifras

Foo Fighters - Run

fixar na tela  
Exibindo: vídeo-aula ver clipes redimensionar

Tom:

G

ver outros tons
  
Intro 

C - Am - Em - D 

e|--------10-------------10------------10------------10-----------| 
B|------8----8---------8----8--------8----8--------7----7h8-------| 
G|----0--------0-----9--------9----9--------9----7----------------| 
D|--10--------------7---------------------------0-----------------| 
A|-------------------------------7--------------------------------| 
E|----------------------------------------------------------------| 

Riff Principal 

e|--------------------------------------------|-------------------| 
B|--------------------------------------------|-------------------| 
G|--------------------------------------------|-------------------| 
D|--------------------------------------------|-(4x)--------------| 
A|--------------------------------------------|-------------------| 
E|-1p-0-0--0--1p-0-0--0--1p-0-0--0--1p-0-0--0-|-------------------| 

Verso 1 | Guitarra 1 

e|------------------------------------------------3--2------------| 
B|---------------------------------------------1--3--3------------| 
G|---------------------------------------------0--0--2------------| 
D|---------------------------------------------2--0--0------------| 
A|---------------------------------------------3--2---------------| 
E|-1p-0-0--0--1p-0-0--0--1p-0-0--0--1p-0-0--0-----3---------------| 

C - G - D 

Verso 1 | Guitarra 2 

e|---------------|------------------------------------------------| 
B|---------------|------------------------------------------------| 
G|-9b10r9-9-9--9-|-(8x)-------------------------------------------| 
D|---------------|------------------------------------------------| 
A|---------------|------------------------------------------------| 
E|---------------|------------------------------------------------| 

e|----------------------------------------------------------------| 
B|-5----3-----8---------------------------------------------------| 
G|-7b9--5b7---10b12r10b12-----------------------------------------| 
D|----------------------------------------------------------------| 
A|----------------------------------------------------------------| 
E|----------------------------------------------------------------| 

Verso 2 | Guitarra 1 

Em - G - A/C# - C - A9 - C7 9 - E 

Verso 2 | Guitarra 2 
e|----------------------------------------------------------------| 
B|----------------------------------------------------------------| 
G|-9--7--6--5--14--15--16-----------------------------------------| 
D|----------------------------------------------------------------| 
A|-7--5--4--3--12--13--14-----------------------------------------| 
E|----------------------------------------------------------------| 

Refrão | Guitarra 1 

e|----------------------------------------------------------------| 
B|-----------------------------------------------3----------------| 
G|-0-0-0---------2-2-2---------------------------2--2-------------| 
D|-2-2-2--2-0----2-2-2----2------2-2-2-----------0--2-------------| 
A|-3-3-3------3--0-0-0----0------2-2-2------2-------0-------------| 
E|----------------------3----3---0-0-0--2/3---3-------------------| 

e|----------------------------------------------------------------| 
B|-------------------------------------------------3--------------| 
G|-0-0-0------------2-2-2--------------------------2--------------| 
D|-2-2-2---0h2-0----2-2-2----2-----2-2-2-----------0--------------| 
A|-3-3-3---------3--0-0-0----0-----2-2-2------2-------------------| 
E|-------------------------3----3--0-0-0--2/3---3-----------------| 

e|----------------------------------------------------------------| 
B|----------------------------------------------------------------| 
G|----------------------------------------------------------------| 
D|-9-9--7--9-9--7--9-9--7--9--------------------------------------| 
A|-7-7--5--7-7--5--7-7--5--7--------------------------------------| 
E|----------------------------------------------------------------| 

Refrão | Guitarra 2 
e|------------------------|---------------------------------------| 
B|------------------------|---------------------------------------| 
G|------------------------|---------------------------------------| 
D|-5-5-5--2-2-2---------7-|-(2x)----------------------------------| 
A|-3-3-3--0-0-0--2-2-2--5-|---------------------------------------| 
E|---------------0-0-0----|---------------------------------------| 


e|----------------------------------------------------|-----------| 
B|--------------------------------------------------3-|-----------| 
G|-0-0-0------------2-2-2---------------------------2-|-----------| 
D|-2-2-2---0h2-0----2-2-2----2------2-2-2-----------0-|-(2x)------| 
A|-3-3-3---------3--0-0-0----0------2-2-2------2------|-----------| 

E|-------------------------3----3---0-0-0--2/3---3----|-----------| 
e|----------------------------------------------------------------| 
B|----------------------------------------------------------------| 
G|-0-0-0------------2-2-2-----------------------------------------| 
D|-2-2-2---0H2-0----2-2-2----2------------------------------------| 
A|-3-3-3---------3--0-0-0----0------------------------------------| 
E|------------------------3----3----------------------------------| 

e|----------------------------------------------------------------| 
B|----------------------------------------------------------------| 
G|----------------------------------------------------------------| 
D|-9-9--7--9-9--7--9-9--7--9--------------------------------------| 
A|-7-7--5--7-7--5--7-7--5--7--------------------------------------| 
E|----------------------------------------------------------------| 

Refrão | Guitarra 3 

e|--------10-------------10------------10------------10-----------| 
B|------8----8---------8----8--------8----8--------7----7h8-------| 
G|----0--------0-----9--------9----9--------9----7----------------| 
D|--10--------------7---------------------------0-----------------| 
A|-------------------------------7--------------------------------| 
E|----------------------------------------------------------------| 


e|-------10------------10-----------------------------------------| 
B|-----8----8--------8----8---------------------------------------| 
G|---0--------0----9--------9-------------------------------------| 
D|-10-------------7-----------------------------------------------| 
A|----------------------------------------------------------------| 
E|----------------------------------------------------------------| 

e|----------------------------------------------------------------| 
B|----------------------------------------------------------------| 
G|----------------------------------------------------------------| 
D|-9-9--7--9-9--7--9-9--7--9--------------------------------------| 
A|-7-7--5--7-7--5--7-7--5--7--------------------------------------| 
E|----------------------------------------------------------------| 


Pós Refrão 1 
e|--------|------|------------------------------------------------| 
B|--------|------|------------------------------------------------| 
G|--------|------|------------------------------------------------| 
D|-9-9--7-|-(4x)-|-9----------------------------------------------| 
A|-7-7--5-|------|-7----------------------------------------------| 
E|--------|------|----13\-----------------------------------------| 

Pós Refrão 2 
e|--------|------|------------------------------------------------| 
B|--------|------|------------------------------------------------| 
G|--------|------|------------------------------------------------| 
D|-9-9--7-|-(7x)-|-9--12-9--7-9-9\--------------------------------| 
A|-7-7--5-|------|-7--10-7--5-7-7\--------------------------------| 
E|--------|------|------------------------------------------------| 

Solo | Guitarra 1 
e|----------------------------------------------------------------| 
B|-----12----12-----12-----10-------15----------------------------| 
G|----------------------------------------------------------------| 
D|-/14----14-----14----/12----12/17----17-------------------------| 
A|----------------------------------------------------------------| 
E|----------------------------------------------------------------| 

e|----------------------------------------------------------------| 
B|----14------14------14------13-------15----15-------------------| 
G|----------------------------------------------------------------| 
D|-14-----14------14------/15----15/17----17----------------------| 
A|----------------------------------------------------------------| 
E|----------------------------------------------------------------| 

e|----------------------------------------------------------------| 
B|-----12----12-----12-----10--------15-----15--------------------| 
G|----------------------------------------------------------------| 
D|-/14----14-----14----\12-----12/17----17------------------------| 
A|----------------------------------------------------------------| 
E|----------------------------------------------------------------| 

e|----------------------------------------------------------------| 
B|-----14------14\----12-----10----10\----------------------------| 
G|----------------------------------------------------------------| 
D|-\14-----14-----12------11----11--------------------------------| 
A|----------------------------------------------------------------| 
E|----------------------------------------------------------------| 

Solo | Guitarra 2 
E5 G5 D5 A5 F5 

Especial | Guitarra 1 
C5 B5+ D5 A5 

Especial | Guitarra 2 
e|----------------------------------------------------------------| 
B|----------------------------------------------------------------| 
G|-9---9-9----9---9-9-----9---9-9----9---9-9----------------------| 
D|----------------------------------------------------------------| 
A|-7---7-7----7---7-7-----7---7-7----7---7-7----------------------| 
E|---------0----------0----------0--------------------------------| 

e|----------------------------------------------------------------| 
B|----------------------------------------------------------------| 
G|-6--6-6-----6--6-6-----6--6-6-----6--6-6------------------------| 
D|----------------------------------------------------------------| 
A|-4--4-4-----4--4-4-----4--4-4-----4--4-4------------------------| 
E|---------0----------0----------0--------------------------------| 
(2x) 

Pós Refrão 3 
e|--------|------|------------------------------------------------| 
B|--------|------|------------------------------------------------| 
G|--------|------|------------------------------------------------| 
D|-9-9--7-|-(3x)-|-9--12--9--7--9--12--9--7--9--9\----------------| 
A|-7-7--5-|------|-7--10--7--5--7--10--7--5--7--7\----------------| 
E|--------|------|------------------------------------------------| 

Final | Guitarra 1 
e|----------------------------------------------------------------| 
B|------------------------------------------4ha-------------------| 
G|------------------------------------------4ha-------------------| 
D|----------------------------------------------------------------| 
A|----------------------------------------------------------------| 
E|-1p-0-0--0--1p-0-0--0--1p-0-0--0--1p-0-0------------------------| 

e|----------------------------------------------------------------| 
B|----------------------------------------------------------------| 
G|----------------------------------------------------------------| 
D|----------------------------------------------------------------| 
A|----------------------------------------------------------------| 
E|-1p-0-0--0--1p-0-0--0--1p-0-0--0--1p-0-0--15/-------------------| 

e|----------------------------------------------------------------| 
B|------------------------------------------4ha-------------------| 
G|------------------------------------------4ha-------------------| 
D|----------------------------------------------------------------| 
A|----------------------------------------------------------------| 
E|-1p-0-0--0--1p-0-0--0--1p-0-0--0--1p-0-0------------------------| 

e|----------------------------------------------------------------| 
B|----------------------------------------------------------------| 
G|----------------------------------------------------------------| 
D|--------------------------------9-9--7--9\----------------------| 
A|--------------------------------7-7--5--7\----------------------| 
E|-1p-0-0--0--1p-0-0--0--1p-0-0-0-7-7--5--7\----------------------| 


Final | Guitarra 2 
e|----------------------------------------------------------------| 
B|------------------------------------------------------------5ha-| 
G|-9b10r9-9-9--9---9b10r9-9-9--9--9b10r9-9-9--9---9b10r9-9-9--5ha-| 
D|----------------------------------------------------------------| 
A|----------------------------------------------------------------| 
E|---------------------------------------------------------------- 
| 

e|----------------------------------------------------------------| 
B|----------------------------------------------------------------| 
G|-9b10r9-9-9--9---9b10r9-9-9--9--9b10r9-9-9--9---9b10r9-9-9------| 
D|----------------------------------------------------------------| 
A|------------------------------------------------------------13\-| 
E|----------------------------------------------------------------| 

e|----------------------------------------------------------------| 
B|------------------------------------------------------------5ha-| 
G|-9b10r9-9-9--9---9b10r9-9-9--9--9b10r9-9-9--9---9b10r9-9-9--5ha-| 
D|----------------------------------------------------------------| 
A|----------------------------------------------------------------| 
E|----------------------------------------------------------------| 

e|----------------------------------------------------------------| 
B|----------------------------------------------------------------| 
G|-9b10r9-9-9--9---9b10r9-9-9--9--9b10r9-9-9--9-------------------| 
D|-----------------------------------------------9-9--7--9\-------| 
A|-----------------------------------------------7-7--5--7\-------| 
E|-----------------------------------------------7-7--5--7\-------|
  

cifra enviadasem correções
enviado porenviada por:Teusalves
Tom: E ver outros instrumentos
Run Tom FF(um tom abaixo)
Run Tom F#F#(meio tom abaixo)
Run Tom GG(tom original)
Run Tom G#G#(meio tom acima)
Run Tom AA(um tom acima)
Subir 1 tomSubir 1/2Descer 1 tomDescer 1/2
top 5 | foo fighters
top rock'n roll
Outras músicas do artista letras do(a) Foo Fighters
4.
Walk
Top cifras »Top artistas »
Petaxxon Comunicação Online
Cifras.com.br - Melhor e mais completo site de cifras e tablaturas do Brasil
Mais de 1 milhão de acordes de músicas cadastradas desde 2003
As informações contidas no nosso site são colaborações de seus usuários e podem conter erros, sendo assim, não nos responsabilizamos sobre nenhuma destas.
close
menos
mais
close
Cor dos acordes:

Cor da letra:

 

save
close
close
 
redimensionar