Cifras e Tablaturas
Foo Fighters

Foo Fighters

The Line

Cifras Cancelar Versão de Impressão
cifras

Foo Fighters - The Line

fixar na tela  
Exibindo: vídeo-aula ver clipes redimensionar

Tom:

  
verse 1 
Yes or no?... 
e|---------------------------------------------------------------------------| 
B|---------------------------------------------------------------------------| 
G|---------------------------------------------------------------------------| 
D|---------------------------------------------------------------------------| 
A|--------------------6--------------------------------------------6---------| 
E|0------------------------------------------0-------------------------------| 

Instrumental 
e|---------------------------------------------------------------------------| 
B|---------------------------------------------------------------------------| 
G|8--8--8--11-11-11-11-11-8--8--8--11-11-11-11-11-8--8--8--11-11-11-11-11-8--| 
D|9--9--9--11-11-11-11-11-9--9--9--11-11-11-11-11-9--9--9--11-11-11-11-11-9--| 
A|7--7--7--7--7--7--7--7--7--7--7--7--7--7--7--7--6--6--6--6--6--6--6--6--6--| 
E|---------------------------------------------------------------------------| 
                                                                               (x2) 
e|---------------------------------------------------------------------------| 
B|---------------------------------------------------------------------------| 
G|8--8--11-11-11-11-11-------------------------------------------------------| 
D|9--9--11-11-11-11-11-------------------------------------------------------| 
A|6--6--6--6--6--6--6--------------------------------------------------------| 
E|---------------------------------------------------------------------------| 

verse 2 
Break my bones... 
e|---------------------------------------------------------------------------| 
B|---------------------------------------------------------------------------| 
G|---------------------------------------------------------------------------| 
D|---------------------------------------------------------------------------| 
A|--------------------6--------------------------------------------6---------| 
E|0------------------------------------------0-------------------------------| 

Instrumental 
e|---------------------------------------------------------------------------| 
B|---------------------------------------------------------------------------| 
G|8--8--8--11-11-11-11-11-8--8--8--11-11-11-11-11-8--8--8--11-11-11-11-11-8--| 
D|9--9--9--11-11-11-11-11-9--9--9--11-11-11-11-11-9--9--9--11-11-11-11-11-9--| 
A|7--7--7--7--7--7--7--7--7--7--7--7--7--7--7--7--6--6--6--6--6--6--6--6--6--| 
E|---------------------------------------------------------------------------| 
                                                                               (x2) 
e|---------------------------------------------------------------------------| 
B|---------------------------------------------------------------------------| 
G|8--8--11-11-11-11-11-------------------------------------------------------| 
D|9--9--11-11-11-11-11-------------------------------------------------------| 
A|6--6--6--6--6--6--6--------------------------------------------------------| 
E|---------------------------------------------------------------------------| 



Instrumental 
e|---------------------------------------------------------------------------| 
B|---------------------------------------------------------------------------| 
G|8--8--8--11-11-11-11-11-8--8--8--11-11-11-11-11-8--8--8--11-11-11-11-11-8--| 
D|9--9--9--11-11-11-11-11-9--9--9--11-11-11-11-11-9--9--9--11-11-11-11-11-9--| 
A|7--7--7--7--7--7--7--7--7--7--7--7--7--7--7--7--6--6--6--6--6--6--6--6--6--| 
E|---------------------------------------------------------------------------| 

e|---------------------------------------------------------------------------| 
B|---------------------------------------------------------------------------| 
G|8--8--11-11-11-11-11-------------------------------------------------------| 
D|9--9--11-11-11-11-11-------------------------------------------------------| 
A|6--6--6--6--6--6--6--------------------------------------------------------| 
E|---------------------------------------------------------------------------| 

verse 3 
Listen close... 
e|---------------------------------------------------------------------------| 
B|---------------------------------------------------------------------------| 
G|---------------------------------------------------------------------------| 
D|---------------------------------------------------------------------------| 
A|7--------------------6--------------------7--------------------7/9----6----| 
E|---------------------------------------------------------------------------| 

Instrumental 
e|---------------------------------------------------------------------------| 
B|---------------------------------------------------------------------------| 
G|8--8--8--11-11-11-11-11-8--8--8--11-11-11-11-11-8--8--8--11-11-11-11-11-8--| 
D|9--9--9--11-11-11-11-11-9--9--9--11-11-11-11-11-9--9--9--11-11-11-11-11-9--| 
A|7--7--7--7--7--7--7--7--7--7--7--7--7--7--7--7--6--6--6--6--6--6--6--6--6--| 
E|---------------------------------------------------------------------------| 
                                                                               (x2) 
e|---------------------------------------------------------------------------| 
B|---------------------------------------------------------------------------| 
G|8--8--11-11-11-11-11-------------------------------------------------------| 
D|9--9--11-11-11-11-11-------------------------------------------------------| 
A|6--6--6--6--6--6--6--------------------------------------------------------| 
E|---------------------------------------------------------------------------| 


Solo 
(Guitar 1) 
e|-----------------------------------------------6-6-6-7-7-7----------11-11--| 
B|-----------------------------------------------7-7-7-7-7-7-12-12-12-12-12--| 
G|--------------6--------------------------------8-8-8-8-8-8-13-13-13-13-13--| 
D|6--8-9-6--8-9----8-9--6--8-9-8---6--8-9-6--8-9-------------11-11-11--------| 
A|-------------------------------9-------------------------------------------| 
E|---------------------------------------------------------------------------| 

e|11-14-14-14-14-------------------------------------------------------------| 
B|12-16-16-16-16-------------------------------------------------------------| 
G|13-16-16-16-16-------------------------------------------------------------| 
D|---------------------------------------------------------------------------| 
A|---------------------------------------------------------------------------| 
E|---------------------------------------------------------------------------| 

(Guitar 2) 
e|---------------------------------------------------------------------------| 
B|---------------------------------------------------------------------------| 
G|8--8--8--11-11-11-11-11-8--8--8--11-11-11-11-11-8--8--8--11-11-11-11-11-8--| 
D|9--9--9--11-11-11-11-11-9--9--9--11-11-11-11-11-9--9--9--11-11-11-11-11-9--| 
A|7--7--7--7--7--7--7--7--7--7--7--7--7--7--7--7--6--6--6--6--6--6--6--6--6--| 
E|---------------------------------------------------------------------------| 
                                                                               (x2) 
e|---------------------------------------------------------------------------| 
B|---------------------------------------------------------------------------| 
G|8--8--11-11-11-11-11-------------------------------------------------------| 
D|9--9--11-11-11-11-11-------------------------------------------------------| 
A|6--6--6--6--6--6--6--------------------------------------------------------| 
E|---------------------------------------------------------------------------| 

  
Outro 
Yes or no?... 
e|---------------------------------------------------------------------------| 
B|---------------------------------------------------------------------------| 
G|---------------------------------------------------------------------------| 
D|---------------------------------------------------------------------------| 
A|--------------------6------------------------------------------------------| 
E|0------------------------------------------0---------------------4---------| 



************************************ 

| /   Slide up 

************************************ 
  

top 5 | foo fighters
top rock'n roll
Outras músicas do artista letras do(a) Foo Fighters
2.
Walk
Top cifras »Top artistas »
Petaxxon Comunicação Online
Cifras.com.br - Melhor e mais completo site de cifras e tablaturas do Brasil
Mais de 1 milhão de acordes de músicas cadastradas desde 2003
As informações contidas no nosso site são colaborações de seus usuários e podem conter erros, sendo assim, não nos responsabilizamos sobre nenhuma destas.
close
menos
mais
close
Cor dos acordes:

Cor da letra:

 

save
close
close
 
redimensionar