Cifras e Tablaturas
Cifras Cancelar Versão de Impressão
cifras

Forever Still - Scars

fixar na tela  
Exibindo: vídeo-aula ver clipes redimensionar

Tom:

  
Tuning: Db Ab Db Gb Bb Eb 

Intro 

eb|--------------------------------------------------------------| 
Bb|--------------------------------------------------------------| 
Gb|--------------------------------------------------------------| 
Db|--------------------------------------------------x--6--x-5---| 
Ab|-----------------6p5-3h5--3-5-3~------------------x--6--x-5---| 
Db|-0h1-0h1-3p1-0h1-----------------0h1-0h1-3p1-0h1--------------| 

eb|-----------------------------------------------------------------| 
Bb|-----------------------------------------------------------------| 
Gb|-----------------------------------------------------------------| 
Db|-----------------------------------------------------------------| 
Ab|-----------------6p5-3h5--3-5-3~---------------------------------| 
Db|-0h1-0h1-3p1-0h1-----------------0h1-0h1-3p1-0h1--4p3-0h1-0h1~---| 

Verse 

"Cannot cry / knowing my..." 

eb|-------------------------------------------| 
Bb|-------------------------------------------| 
Gb|-------------------------------------------| 
Db|-------------------------------------------| 
Ab|-------------------------------------------| 
Db|-0h1-0h1-3p1p0--------0h1-0h1-3p1p0--------| 

"Tears won't drown / the pain inside me..." 

eb|---------------------------------------------------------------| 
Bb|---------------------------------------------------------------| 
Gb|---------------------------------------------------------------| 
Db|---------------------------------------------------------------| 
Ab|-------------------------------------6p5-3h5--3-5-3~-----------| 
Db|-0h1-0h1-3p1p0--------0h1-0h1-3p1p0----------------------------| 

"Searching / Seizing / Breathing / Bleeding / Screaming / Cover up the..." 
/palm muting/ 

eb|--------------------------------------------------------------| 
Bb|--------------------------------------------------------------| 
Gb|--------------------------------------------------------------| 
Db|--------------------------------------------------x--6-x--5---| x2 
Ab|-----------------6p5-3h5--3-5-3~------------------x--6-x--5---| 
Db|-0h1-0h1-3p1-0h1-----------------0h1-0h1-3p1-0h1--------------| 

Chorus 

"Scars... " 
"Let the starless night" 
"Keep them out of sight" 
"Let the light of day" 
"Make them fade away" 

A / F / A / C#m 

eb|----------------------------------------------------------------------------| 
Bb|--11-11-11-11--8--8--11-11---------6-6---------6-6---------6-6---------6-6--| 
Gb|--10-10-10-10--7--7--10-10---------7-7---------7-7---------7-7---------7-7--| 
Db|--8--8--8--8---5--5--8--8----------7-7---------7-7---------7-7---------7-7--| x2 
Ab|--8--8--8--8---5--5--8--8----------5-5---------5-5---------5-5---------5-5--| 
Db|--8--8--8--8---5--5--8--8----0--0--0-0---0--0--0-0---0--0--0-0---0--0--0-0--| 

/pick scrape down the bottom string/ 

verse 2 

"Tried to hide / safe inside" 

eb|-------------------------------------------| 
Bb|-------------------------------------------| 
Gb|-------------------------------------------| 
Db|-------------------------------------------| 
Ab|-------------------------------------------| 
Db|-0h1-0h1-3p1p0--------0h1-0h1-3p1p0--------| 

"Mutely begging / you to find me" 

eb|---------------------------------------------------------------| 
Bb|---------------------------------------------------------------| 
Gb|---------------------------------------------------------------| 
Db|---------------------------------------------------------------| 
Ab|-------------------------------------6p5-3h5--3-5-3~-----------| 
Db|-0h1-0h1-3p1p0--------0h1-0h1-3p1p0----------------------------| 

"Leave / Deceive me / Hurt me / Judge me / So I / Cover up the..." 

eb|--------------------------------------------------------------| 
Bb|--------------------------------------------------------------| 
Gb|--------------------------------------------------------------| 
Db|--------------------------------------------------x--6-x--5---| x2 
Ab|-----------------6p5-3h5--3-5-3~------------------x--6-x--5---| 
Db|-0h1-0h1-3p1-0h1-----------------0h1-0h1-3p1-0h1--------------| 

Chorus 

"Scars... " 
"Let the starless night" 
"Keep them out of sight" 
"Let the light of day" 
"Make them fade away" 

A / F / A / C#m 

eb|----------------------------------------------------------------------------| 
Bb|--11-11-11-11--8--8--11-11---------6-6---------6-6---------6-6---------6-6--| 
Gb|--10-10-10-10--7--7--10-10---------7-7---------7-7---------7-7---------7-7--| 
Db|--8--8--8--8---5--5--8--8----------7-7---------7-7---------7-7---------7-7--| x2 
Ab|--8--8--8--8---5--5--8--8----------5-5---------5-5---------5-5---------5-5--| 
Db|--8--8--8--8---5--5--8--8----0--0--0-0---0--0--0-0---0--0--0-0---0--0--0-0--| 

Bridge 

"I've tried so hard to become what you wanted me to" 
"But instead I've ended up being everything you wish I'm not" 

/***heavy palm muting***/ 

GUITAR 1: 

eb|------------------------------------------| 
Bb|------------------------------------------| 
Gb|------------------------------------------| 
Db|-0-0-0-0--6-5-0-5--0-0-0-0--6-5-0-5-------| x8 
Ab|-0-0-0-0--6-5-0-5--0-0-0-0--6-5-0-5-------| 
Db|-0-0-0-0--6-5-0-5--0-0-0-0--6-5-0-5-------| 

GUITAR 2 fill (comes in at "but instead I've ended up being"): 

eb|------------------| 
Bb|------------------| 
Gb|------------------| 
Db|--0-1-3--0-1-3----| x8 
Ab|------------------| 
Db|------------------| 

"Everything you wish I'm not" 
"Everything you wish I'm..." 

/reduced palm muting/ 

eb|------------------------------------------| 
Bb|------------------------------------------| 
Gb|------------------------------------------| 
Db|-0-0-0-0--6-5-0-5--0-0-0-0--6-5-0-5-------| x8 
Ab|-0-0-0-0--6-5-0-5--0-0-0-0--6-5-0-5-------| 
Db|-0-0-0-0--6-5-0-5--0-0-0-0--6-5-0-5-------| 

Chorus 

"Let the starless night" 
"Keep them out of sight" 
"Let the light of day" 
"Make them fade away" 

"Make them fade away..." 
"I'll make them fade away." 

A / F / A / C#m 

eb|----------------------------------------------------------------------------| 
Bb|--11-11-11-11--8--8--11-11---------6-6---------6-6---------6-6---------6-6--| 
Gb|--10-10-10-10--7--7--10-10---------7-7---------7-7---------7-7---------7-7--| 
Db|--8--8--8--8---5--5--8--8----------7-7---------7-7---------7-7---------7-7--| x3 
Ab|--8--8--8--8---5--5--8--8----------5-5---------5-5---------5-5---------5-5--| 
Db|--8--8--8--8---5--5--8--8----0--0--0-0---0--0--0-0---0--0--0-0---0--0--0-0--| 

Outro 

finish with: 

eb|-----------------------------------| 
Bb|-----------------------------------| 
Gb|-----------------------------------| 
Db|-----------------------------------| 
Ab|-----------------------------------| 
Db|-0h1-0h1-3p1-0h1--6p5-0h1-3p1-0h1--| 


| /  slide up 
| \  slide down 
| h  hammer-on 
| p  pull-off 
| ~  vibrato 
| x  Mute note 
  

cifra enviadasem correções
enviado porenviada por:gustsilva
top 5 | forever still
top rock'n roll
Outras músicas do artista letras do(a) Forever Still
Top cifras »Top artistas »
Petaxxon Comunicação Online
Cifras.com.br - Melhor e mais completo site de cifras e tablaturas do Brasil
Mais de 1 milhão de acordes de músicas cadastradas desde 2003
As informações contidas no nosso site são colaborações de seus usuários e podem conter erros, sendo assim, não nos responsabilizamos sobre nenhuma destas.
close
menos
mais
close
Cor dos acordes:

Cor da letra:

 

save
close
close
 
redimensionar