Cifras e Tablaturas
Fort Hope

Fort Hope

Sick

Cifras Cancelar Versão de Impressão
cifras

Fort Hope - Sick

fixar na tela  
Exibindo: vídeo-aula ver clipes redimensionar

Tom:

  
Intro 

e|-----------------------------------| 
B|-----------------------------------| 
G|-----------------------------------| 
D|--9999----7777----4444------5\7----| 
A|--9999----7777----4444------5\7----| 
E|--7777----5555----2222------3\5----| 

e|----------------------------------------| 
B|----------------------------------------| 
G|----------------------------------------| 
D|--9999----7777----4-4-4--4\5------5\7----| 
A|--9999----7777----4-4-4--4\5------5\7----| 
E|--7777----5555----2-2-2--2\3------3\5----| 


Verse 

e|------------------------------------------------------| 
B|------------------------------------------------------| 
G|------------------------------------------------------| 
D|--9-9-999-----------7-7-777-----------5-5-555---------| 
A|--9-9-999---x4------7-7-777---x2------5-5-555---x2----| 
E|--7-7-777-----------5-5-555-----------3-3-333---------| 


Pre-Chorus 

e|-------------------------------------------------------------| 
B|--PM except last note----------------------------------------| 
G|-------------------------------------------------------------| 
D|--4-4-4-4-4-4-4-4-5-5-5-5-6-6-6-6-7-7-7-7-8-8-8-8-9-9-9-9----| 
A|--4-4-4-4-4-4-4-4-5-5-5-5-6-6-6-6-7-7-7-7-8-8-8-8-9-9-9-9----| 
E|--2-2-2-2-2-2-2-2-3-3-3-3-4-4-4-4-5-5-5-5-6-6-6-6-7-7-7-7----| 


Chorus 1 

e|-------------------------------------------------| 
B|-------------------------------------------------| 
G|-------------------------------------------------| 
D|-------------------------------------------------| 
A|--9---9---12---12---12---14---10---10------x2----| 
E|----9---9---12---12---12---14---10---10----------| 
                                        
e|----------------------------------------------------------------------| 
B|----------------------------------------PM except last 3 notes--------| 
G|----------------------------------------------------------------------| 
D|--9-9---12-12---12-12-x-x-11--------4-4-5-5-6-6-7-7-8-8-9-9-121212----| 
A|--9-9---12-12---12-12-x-x-11--------4-4-5-5-6-6-7-7-8-8-9-9-121212----| 
E|--7-7---10-10---10-10-x-x-9---------2-2-3-3-4-4-5-5-6-6-7-7-101010----| 

e|------------------------------------------------------------------------| 
B|------------------------------------------------------------------------| 
G|------------------------------------------------------------------------| 
D|--9999----7777----4444------5\7----9999----7777----4444------55555\7----| 
A|--9999----7777----4444------5\7----9999----7777----4444------55555\7----| 
E|--7777----5555----2222------3\5----7777----5555----2222------33333\5----| 

e|--------------------------------------------------------------------------------------| 
B|--------------------------------------------------------------------------------------| 
G|--------------------------------------------------------------------------------------| 
D|--9999----7777----4444----(-----------------)----9999----7777----4444------55555\7----| 
A|--9999----7777----4444----(bass part : -----)----9999----7777----4444------55555\7----| 
E|--7777----5555----2222----(------------53135)----7777----5555----2222------33333\5----| 


Verse 

e|------------------------------------------------------| 
B|------------------------------------------------------| 
G|------------------------------------------------------| 
D|--9-9-999-----------7-7-777-----------5-5-555---------| 
A|--9-9-999---x4------7-7-777---x2------5-5-555---x2----| 
E|--7-7-777-----------5-5-555-----------3-3-333---------| 


Pre-Chorus 

e|-----------------------------------------------------------------------| 
B|--PM except last note--------------------------------------------------| 
G|-----------------------------------------------------------------------| 
D|--4-4-4-4-4-4-4-4-5-5-5-5-6-6-6-6-7-7-7-7-8-8-8-8-9-9-9-9--------------| 
A|--4-4-4-4-4-4-4-4-5-5-5-5-6-6-6-6-7-7-7-7-8-8-8-8-9-9-9-9--------------| 
E|--2-2-2-2-2-2-2-2-3-3-3-3-4-4-4-4-5-5-5-5-6-6-6-6-7-7-7-7--------------| 


Chorus 2 

e|-------------------------------------------------| 
B|-------------------------------------------------| 
G|-------------------------------------------------| 
D|-------------------------------------------------| 
A|--9---9---12---12---12---14---10---10------x2----| 
E|----9---9---12---12---12---14---10---10----------| 

                                         
e|----------------------------------------------------------------------| 
B|----------------------------------------PM except last 3 notes--------| 
G|----------------------------------------------------------------------| 
D|--9-9---12-12---12-12-x-x-11--------4-4-5-5-6-6-7-7-8-8-9-9-121212----| 
A|--9-9---12-12---12-12-x-x-11--------4-4-5-5-6-6-7-7-8-8-9-9-121212----| 
E|--7-7---10-10---10-10-x-x-9---------2-2-3-3-4-4-5-5-6-6-7-7-101010----| 


e|------------------------------------------------------------------------| 
B|------------------------------------------------------------------------| 
G|------------------------------------------------------------------------| 
D|--9999----7777----4444------5\7----9999----7777----4444------55555\7----| 
A|--9999----7777----4444------5\7----9999----7777----4444------55555\7----| 
E|--7777----5555----2222------3\5----7777----5555----2222------33333\5----| 

                                                                             
e|----------------------------------------------------------------------------------| 
B|---------------------------------------------------------------PM except last note| 
G|----------------------------------------------------------------------------------| 
D|--9999----7777----4444----(-----------------)----9999----7777----5-5-5-7-7-7-7----| 
A|--9999----7777----4444----(bass part : -----)----9999----7777----5-5-5-7-7-7-7----| 
E|--7777----5555----2222----(------------53135)----7777----5555----3-3-3-5-5-5-5----| 


Outro 

e|-------------------------------------------------| 
B|-------------------------------------------------| 
G|-------------------------------------------------| 
D|-------------------------------------------------| 
A|--9---9---12---12---12---14---10---10------x2----| 
E|----9---9---12---12---12---14---10---10----------| 

                                         
e|----------------------------------------| 
B|----------------------------------------| 
G|----------------------------------------| 
D|----9-9---12-12---12-12-x-x-11----------| 
A|----9-9---12-12---12-12-x-x-11----x2----| 
E|----7-7---10-10---10-10-x-x-9-----------| 


End 



************************************ 

| x   Dead note 
| \   Slide down 
| PM  Palm mute 

************************************ 
  

top 5 | fort hope
top rock'n roll
Outras músicas do artista letras do(a) Fort Hope
3.
Sick
Top cifras »Top artistas »
Petaxxon Comunicação Online
Cifras.com.br - Melhor e mais completo site de cifras e tablaturas do Brasil
Mais de 1 milhão de acordes de músicas cadastradas desde 2003
As informações contidas no nosso site são colaborações de seus usuários e podem conter erros, sendo assim, não nos responsabilizamos sobre nenhuma destas.
close
menos
mais
close
Cor dos acordes:

Cor da letra:

 

save
close
close
 
redimensionar