Cifras e Tablaturas
Foster The People
Cifras Cancelar Versão de Impressão

Foster The People - Shc

Tom:

  			
Intro 
e|--/14--14-14--14-14-14-14/9-9--9-9-12--9-9-9/7-7--7--7-7/9-9--9-9--9-9-9-9\5--5-5--5-5-5-5/9--9-9--9-9-9/--| 
B|--/14--14-14--14-14-14-14/9-9--9-9-9---9-9-9/7-7--7--7-7/9-9--9-9--9-9-9-9\5--5-5--5-5-5-5/9--9-9--9-9-9/--| 
G|--/14--14-14--14-14-14-14/9-9--9-9-9---9-9-9/7-7--7--7-7/9-9--9-9--9-9-9-9\6--6-6--6-6-6-6/9--9-9--9-9-9/--| 
D|-----------------------------------------------------------------------------------------------------------| 
A|-----------------------------------------------------------------------------------------------------------| 
E|-----------------------------------------------------------------------------------------------------------| 

e|--/14--14-14--14-14-14-14/9-9--9-9-12--9-9-9/7-7--7--7-7/9-9--9-9--9-9-9-9\5--5-5--5-5-5-5/9--9-9--9-9-9/--| 
B|--/14--14-14--14-14-14-14/9-9--9-9-9---9-9-9/7-7--7--7-7/9-9--9-9--9-9-9-9\5--5-5--5-5-5-5/9--9-9--9-9-9/--| 
G|--/14--14-14--14-14-14-14/9-9--9-9-9---9-9-9/7-7--7--7-7/9-9--9-9--9-9-9-9\6--6-6--6-6-6-6/9--9-9--9-9-9/--| 
D|-----------------------------------------------------------------------------------------------------------| 
A|-----------------------------------------------------------------------------------------------------------| 
E|-----------------------------------------------------------------------------------------------------------| 

verse 1 
You are our secret 
It's worth keeping 
And now I'm keeping my mouth shut 
On the weekends 
I won't hang out with anybody else 
The pavement 
Always begging 
What's it want from me? 
And I keep falling backwards 
Looking for relief 

Pre-Chorus 1 
e|------------------------7\-------7\------------------------------------------| 
B|------------------------7\-------7\------------------------------------------| 
G|------------------------7\-------7\------------------------------------------| 
D|------------------------9\-------9\------------------------------------------| 
A|------------------------9\-------9\------------------------------------------| 
E|------------------------x--------x-------------------------------------------| 
  Want to be free                  Well, I've been counting all the 

e|--------7\-------------------------------------------------------------------| 
B|--------7\-------------------------------------------------------------------| 
G|--------7\-------------------------------------------------------------------| 
D|--------9\-------------------------------------------------------------------| 
A|--------9\-------------------------------------------------------------------| 
E|--------x--------------------------------------------------------------------| 
   minutes And the days have been counting  

Chorus 
e|--/14--14-14--14-14-14-14/9-9--9-9-12--9-9-9/7-7--7--7-7/9-9--9-9--9-9-9-9\5--5-5--5-5-5-5/9--9-9--9-9-9/--| 
B|--/14--14-14--14-14-14-14/9-9--9-9-9---9-9-9/7-7--7--7-7/9-9--9-9--9-9-9-9\5--5-5--5-5-5-5/9--9-9--9-9-9/--| 
G|--/14--14-14--14-14-14-14/9-9--9-9-9---9-9-9/7-7--7--7-7/9-9--9-9--9-9-9-9\6--6-6--6-6-6-6/9--9-9--9-9-9/--| 
D|-----------------------------------------------------------------------------------------------------------| 
A|-----------------------------------------------------------------------------------------------------------| 
E|-----------------------------------------------------------------------------------------------------------| 
  me                                         I want to live my life again                       But you won't 

e|--/14--14-14--14-14-14-14/9-9--9-9-12--9-9-9/7-7--7--7-7/9-9--9-9--9-9-9-9\5--5-5--5-5-5-5/9--9-9--9-9-9/--| 
B|--/14--14-14--14-14-14-14/9-9--9-9-9---9-9-9/7-7--7--7-7/9-9--9-9--9-9-9-9\5--5-5--5-5-5-5/9--9-9--9-9-9/--| 
G|--/14--14-14--14-14-14-14/9-9--9-9-9---9-9-9/7-7--7--7-7/9-9--9-9--9-9-9-9\6--6-6--6-6-6-6/9--9-9--9-9-9/--| 
D|-----------------------------------------------------------------------------------------------------------| 
A|-----------------------------------------------------------------------------------------------------------| 
E|-----------------------------------------------------------------------------------------------------------| 
                                             I'll never understand the winds                      But you do 

e|--/14--14-14--14-14-14-14/9-9--9-9-12--9-9-9/7-7--7--7-7/9-9--9-9--9-9-9-9\5--5-5--5-5-5-5/9--9-9--9-9-9/--| 
B|--/14--14-14--14-14-14-14/9-9--9-9-9---9-9-9/7-7--7--7-7/9-9--9-9--9-9-9-9\5--5-5--5-5-5-5/9--9-9--9-9-9/--| 
G|--/14--14-14--14-14-14-14/9-9--9-9-9---9-9-9/7-7--7--7-7/9-9--9-9--9-9-9-9\6--6-6--6-6-6-6/9--9-9--9-9-9/--| 
D|-----------------------------------------------------------------------------------------------------------| 
A|-----------------------------------------------------------------------------------------------------------| 
E|-----------------------------------------------------------------------------------------------------------| 
                                             I didn't know I was afraid                           But you did 

e|--/14--14-14--14-14-14-14/9-9--9-9-12--9-9-9/7-7--7--7-7/9-9--9-9--9-9-9-9\5--5-5--5-5-5-5/9--9-9--9-9-9/--| 
B|--/14--14-14--14-14-14-14/9-9--9-9-9---9-9-9/7-7--7--7-7/9-9--9-9--9-9-9-9\5--5-5--5-5-5-5/9--9-9--9-9-9/--| 
G|--/14--14-14--14-14-14-14/9-9--9-9-9---9-9-9/7-7--7--7-7/9-9--9-9--9-9-9-9\6--6-6--6-6-6-6/9--9-9--9-9-9/--| 
D|-----------------------------------------------------------------------------------------------------------| 
A|-----------------------------------------------------------------------------------------------------------| 
E|-----------------------------------------------------------------------------------------------------------| 
                                             I want to do it again 

verse 2 
Well I've been sleeping 
Waiting for something 
But to feel nothing 
At all, avoid the call 
Sometimes I'm reckless 
Sometimes misdirected 
And sometimes when I'm tested 
I tend to do nothing at all 

Pre-Chorus 2 
e|------------------------7\-------7\------------------------------------------| 
B|------------------------7\-------7\------------------------------------------| 
G|------------------------7\-------7\------------------------------------------| 
D|------------------------9\-------9\------------------------------------------| 
A|------------------------9\-------9\------------------------------------------| 
E|------------------------x--------x-------------------------------------------| 
  And when I'm alone                There's a ghost that keeps talking 

e|--------7\--------------7\-----------------------------------------------------| 
B|--------7\--------------7\-----------------------------------------------------| 
G|--------7\--------------7\-----------------------------------------------------| 
D|--------9\--------------9\-----------------------------------------------------| 
A|--------9\--------------9\-----------------------------------------------------| 
E|--------x---------------x-----------------------------------------------------| 
       And I know there's gotta be more 

Chorus 
e|--/14--14-14--14-14-14-14/9-9--9-9-12--9-9-9/7-7--7--7-7/9-9--9-9--9-9-9-9\5--5-5--5-5-5-5/9--9-9--9-9-9/--| 
B|--/14--14-14--14-14-14-14/9-9--9-9-9---9-9-9/7-7--7--7-7/9-9--9-9--9-9-9-9\5--5-5--5-5-5-5/9--9-9--9-9-9/--| 
G|--/14--14-14--14-14-14-14/9-9--9-9-9---9-9-9/7-7--7--7-7/9-9--9-9--9-9-9-9\6--6-6--6-6-6-6/9--9-9--9-9-9/--| 
D|-----------------------------------------------------------------------------------------------------------| 
A|-----------------------------------------------------------------------------------------------------------| 
E|-----------------------------------------------------------------------------------------------------------| 
For sure                                        I want to live my life again                     But you won't 

e|--/14--14-14--14-14-14-14/9-9--9-9-12--9-9-9/7-7--7--7-7/9-9--9-9--9-9-9-9\5--5-5--5-5-5-5/9--9-9--9-9-9/--| 
B|--/14--14-14--14-14-14-14/9-9--9-9-9---9-9-9/7-7--7--7-7/9-9--9-9--9-9-9-9\5--5-5--5-5-5-5/9--9-9--9-9-9/--| 
G|--/14--14-14--14-14-14-14/9-9--9-9-9---9-9-9/7-7--7--7-7/9-9--9-9--9-9-9-9\6--6-6--6-6-6-6/9--9-9--9-9-9/--| 
D|-----------------------------------------------------------------------------------------------------------| 
A|-----------------------------------------------------------------------------------------------------------| 
E|-----------------------------------------------------------------------------------------------------------| 
                                             I'll never understand the winds                      But you do 

e|--/14--14-14--14-14-14-14/9-9--9-9-12--9-9-9/7-7--7--7-7/9-9--9-9--9-9-9-9\5--5-5--5-5-5-5/9--9-9--9-9-9/--| 
B|--/14--14-14--14-14-14-14/9-9--9-9-9---9-9-9/7-7--7--7-7/9-9--9-9--9-9-9-9\5--5-5--5-5-5-5/9--9-9--9-9-9/--| 
G|--/14--14-14--14-14-14-14/9-9--9-9-9---9-9-9/7-7--7--7-7/9-9--9-9--9-9-9-9\6--6-6--6-6-6-6/9--9-9--9-9-9/--| 
D|-----------------------------------------------------------------------------------------------------------| 
A|-----------------------------------------------------------------------------------------------------------| 
E|-----------------------------------------------------------------------------------------------------------| 
                                             I didn't know I was afraid                           But you did 

e|--/14--14-14--14-14-14-14/9-9--9-9-12--9-9-9/7-7--7--7-7/9-9--9-9--9-9-9-9\5--5-5--5-5-5-5/9--9-9--9-9-9/--| 
B|--/14--14-14--14-14-14-14/9-9--9-9-9---9-9-9/7-7--7--7-7/9-9--9-9--9-9-9-9\5--5-5--5-5-5-5/9--9-9--9-9-9/--| 
G|--/14--14-14--14-14-14-14/9-9--9-9-9---9-9-9/7-7--7--7-7/9-9--9-9--9-9-9-9\6--6-6--6-6-6-6/9--9-9--9-9-9/--| 
D|-----------------------------------------------------------------------------------------------------------| 
A|-----------------------------------------------------------------------------------------------------------| 
E|-----------------------------------------------------------------------------------------------------------| 
                                             I want to do it again 

Bridge 
Omnipotent (omnipotent) 
I've been numbing my thoughts for hours 
I know you wanted to save me from myself 
We've been wilting our young for seeds 
And I can't compete 
We're too strung to feel 
What's real? 

Chorus 
e|--/14--14-14--14-14-14-14/9-9--9-9-12--9-9-9/7-7--7--7-7/9-9--9-9--9-9-9-9\5--5-5--5-5-5-5/9--9-9--9-9-9/--| 
B|--/14--14-14--14-14-14-14/9-9--9-9-9---9-9-9/7-7--7--7-7/9-9--9-9--9-9-9-9\5--5-5--5-5-5-5/9--9-9--9-9-9/--| 
G|--/14--14-14--14-14-14-14/9-9--9-9-9---9-9-9/7-7--7--7-7/9-9--9-9--9-9-9-9\6--6-6--6-6-6-6/9--9-9--9-9-9/--| 
D|-----------------------------------------------------------------------------------------------------------| 
A|-----------------------------------------------------------------------------------------------------------| 
E|-----------------------------------------------------------------------------------------------------------| 
                                                I want to live my life again                     But you won't 

e|--/14--14-14--14-14-14-14/9-9--9-9-12--9-9-9/7-7--7--7-7/9-9--9-9--9-9-9-9\5--5-5--5-5-5-5/9--9-9--9-9-9/--| 
B|--/14--14-14--14-14-14-14/9-9--9-9-9---9-9-9/7-7--7--7-7/9-9--9-9--9-9-9-9\5--5-5--5-5-5-5/9--9-9--9-9-9/--| 
G|--/14--14-14--14-14-14-14/9-9--9-9-9---9-9-9/7-7--7--7-7/9-9--9-9--9-9-9-9\6--6-6--6-6-6-6/9--9-9--9-9-9/--| 
D|-----------------------------------------------------------------------------------------------------------| 
A|-----------------------------------------------------------------------------------------------------------| 
E|-----------------------------------------------------------------------------------------------------------| 
                                             I'll never understand the winds                      But you do 

e|--/14--14-14--14-14-14-14/9-9--9-9-12--9-9-9/7-7--7--7-7/9-9--9-9--9-9-9-9\5--5-5--5-5-5-5/9--9-9--9-9-9/--| 
B|--/14--14-14--14-14-14-14/9-9--9-9-9---9-9-9/7-7--7--7-7/9-9--9-9--9-9-9-9\5--5-5--5-5-5-5/9--9-9--9-9-9/--| 
G|--/14--14-14--14-14-14-14/9-9--9-9-9---9-9-9/7-7--7--7-7/9-9--9-9--9-9-9-9\6--6-6--6-6-6-6/9--9-9--9-9-9/--| 
D|-----------------------------------------------------------------------------------------------------------| 
A|-----------------------------------------------------------------------------------------------------------| 
E|-----------------------------------------------------------------------------------------------------------| 
                                             I didn't know I was afraid                           But you did 

e|--/14--14-14--14-14-14-14\9-9--9-9-12--9-9-9\7-7--7--7-7/9-9--9-9--9-9-9-9\5--5-5--5-5-5-5/9--9-9--9-9-9/--| 
B|--/14--14-14--14-14-14-14\9-9--9-9-9---9-9-9\7-7--7--7-7/9-9--9-9--9-9-9-9\5--5-5--5-5-5-5/9--9-9--9-9-9/--| 
G|--/14--14-14--14-14-14-14\9-9--9-9-9---9-9-9\7-7--7--7-7/9-9--9-9--9-9-9-9\6--6-6--6-6-6-6/9--9-9--9-9-9/--| 
D|-----------------------------------------------------------------------------------------------------------| 
A|-----------------------------------------------------------------------------------------------------------| 
E|-----------------------------------------------------------------------------------------------------------| 
                                             I want to do it again 

Outro 
e|--/14--14-14-14--\12--12-12-12--/12--12-12-12--/9--9-9-9--/5--5-5-5--/9--9-9-9----------------| 
B|--/14--14-14-14--\9---9--9--9---/9---9--9--9---/9--9-9-9--/5--5-5-5--/9--9-9-9----------------| 
G|--/14--14-14-14--\9---9--9--9---/9---9--9--9---/9--9-9-9--/6--6-6-6--/9--9-9-9----------------| 
D|----------------------------------------------------------------------------------------------| 
A|----------------------------------------------------------------------------------------------| 
E|----------------------------------------------------------------------------------------------| 

e|--/14--14-14-14--\12--12-12-12--/12--12-12-12--/9--9-9-9--/5--5-5-5--/9--9-9-9----------------| 
B|--/14--14-14-14--\9---9--9--9---/9---9--9--9---/9--9-9-9--/5--5-5-5--/9--9-9-9----------------| 
G|--/14--14-14-14--\9---9--9--9---/9---9--9--9---/9--9-9-9--/6--6-6-6--/9--9-9-9----------------| 
D|----------------------------------------------------------------------------------------------| 
A|----------------------------------------------------------------------------------------------| 
E|----------------------------------------------------------------------------------------------| 
    Do you want to live forever? 

e|--/14--14-14-14--\12--12-12-12--/12--12-12-12--/9--9-9-9--/5--5-5-5--/9--9-9-9----------------| 
B|--/14--14-14-14--\9---9--9--9---/9---9--9--9---/9--9-9-9--/5--5-5-5--/9--9-9-9----------------| 
G|--/14--14-14-14--\9---9--9--9---/9---9--9--9---/9--9-9-9--/6--6-6-6--/9--9-9-9----------------| 
D|----------------------------------------------------------------------------------------------| 
A|----------------------------------------------------------------------------------------------| 
E|----------------------------------------------------------------------------------------------| 
    Do you want to live forever? 

e|--/14--14-14-14--\12--12-12-12--/12--12-12-12--/9--9-9-9--/5--5-5-5--/9--9-9-9----------------| 
B|--/14--14-14-14--\9---9--9--9---/9---9--9--9---/9--9-9-9--/5--5-5-5--/9--9-9-9----------------| 
G|--/14--14-14-14--\9---9--9--9---/9---9--9--9---/9--9-9-9--/6--6-6-6--/9--9-9-9----------------| 
D|----------------------------------------------------------------------------------------------| 
A|----------------------------------------------------------------------------------------------| 
E|----------------------------------------------------------------------------------------------| 
    Mmm... I would 



************************************ 

| x   Dead note 
| /   Slide up 
| \   Slide down 

************************************ 
    	
fixar
fixar inscrever-se

enviado porenviado por: lucicamargo
cifra enviadaCorrigida por: sem correções
logo top cifrasComente
ico música do artistaMúsicas deste artista
ico curtiuCurtiu?
ico destaqueDestaque
Petaxxon Comunicação Online

Cifras.com.br - Melhor e mais completo site de cifras e tablaturas do Brasil Mais de 1 milhão de acordes de músicas cadastradas desde 2003
As informações contidas no nosso site são colaborações de seus usuários e podem conter erros, sendo assim, não nos responsabilizamos sobre nenhuma destas.

close
menos
mais
close
Cor dos acordes:

Cor da letra:

close
Alinhar acordes a direita Alinhar acordes a esquerda Alinhar acordes em baixo Alinhar acordes no topo
close
  Mostrar todos os acordes Esconder acordes muito fáceis Esconder acordes fáceis Esconder acordes intermediários
redimensionar
glossário