Cifras e Tablaturas
Four Tet

Four Tet

Unspoken

Cifras Cancelar Versão de Impressão Print

Four Tet - Unspoken

Tom:

  			 

Tuning: Standard (EADGBe) -  
 

Original song is played on the piano. All frets relative to the capo. Enjoy! 

--- 

This is played pretty much during the whole song. 

e|------------------0--------------0-------------------------| 
B|-------0h1--3-------------1--0---------------------1-------| 
G|-------0------------------0------------0-----------0-------| 
D|----2----------------0------------------------0------------| 
A|-0----------------------------------3--------------------0-| 
E|---------------3-----------------1-----3------3-------3----| 


e|----0------------------------------3-----------------------| 
B|-------1--3---------------1-----0--------------------------| 
G|----2---------------2--4--0-----------0--------------------| 
D|-2--------------0------------------------------------------| 
A|-----------------------------3---------------------------0-| 
E|-------------3------------1------------------------0--3----| 


Bridge: 

e|--------------------| 
B|--------------------| 
G|----0--0-----0h2----| 
D|----------2-------4-| 
A|-0------------------| 
E|--------------------| 


************************************ 
| h   hammer-on 
************************************ 
    	
fixar
fixar inscrever-se

enviado porenviado por: adalgomes
cifra enviadaCorrigida por: sem correções
logo top cifrasComente
ico música do artistaMúsicas deste artista
ico curtiuCurtiu?
ico destaqueDestaque
Petaxxon Comunicação Online

Cifras.com.br - Melhor e mais completo site de cifras e tablaturas do Brasil Mais de 1 milhão de acordes de músicas cadastradas desde 2003
As informações contidas no nosso site são colaborações de seus usuários e podem conter erros, sendo assim, não nos responsabilizamos sobre nenhuma destas.

close
menos
mais
close
Cor dos acordes:

Cor da letra:

close
Alinhar acordes a direita Alinhar acordes a esquerda Alinhar acordes em baixo Alinhar acordes no topo
close
  Mostrar todos os acordes Esconder acordes muito fáceis Esconder acordes fáceis Esconder acordes intermediários
redimensionar
glossário