Cifras e Tablaturas
Foxy Shazam

Foxy Shazam

I Like It

Cifras Cancelar Versão de Impressão Print

Foxy Shazam - I Like It

Tom:

  			

intro X2 

e|----------------------------------------------------------------------------| 
B|----------------------------------------------------------------------------| 
G|----------------------------------------------------------------------------| 
D|---6-6-4-6--6-6-4-6--11-9----6-6-4-6---6-6-5-4--1---------------------------| 
A|---6-6-4-6--6-6-4-6--11-9----6-6-4-6---6-6-5-4--1---------------------------| 
D|---6-6-4-6--6-6-4-6--11-9----6-6-4-6---6-6-5-4--1---------------------------| 

Verse X2 

e|----------------------------------------------------------------------------| 
B|----------------------------------------------------------------------------| 
G|----------------------------------------------------------------------------| 
D|---6-6-4-6--6-6-4-6--11-9----6-6-4-6---6-6-5-4--1---2-2-1-2--2-2-1-2--11-9--| 
A|---6-6-4-6--6-6-4-6--11-9----6-6-4-6---6-6-5-4--1---2-2-1-2--2-2-1-2--11-9--| 
D|---6-6-4-6--6-6-4-6--11-9----6-6-4-6---6-6-5-4--1---2-2-1-2--2-2-1-2--11-9--| 

e|----------------------------------------------------------------------------| 
B|----------------------------------------------------------------------------| 
G|----------------------------------------------------------------------------| 
D|---6-6-4-6---6-6-5-4--1-----------------------------------------------------| 
A|---6-6-4-6---6-6-5-4--1-----------------------------------------------------| 
D|---6-6-4-6---6-6-5-4--1-----------------------------------------------------| 

Pre-chorus 
     (come on, come on, come on) 

e|----------------------------------------------------------------------------| 
B|----------------------------------------------------------------------------| 
G|----------------------------------------------------------------------------| 
D|-----11-11--11-11--11-11--11-----1-1--1-1--1-1------------------------------| 
A|-----11-11--11-11--11-11--11-----1-1--1-1--1-1------------------------------|b2 
D|-----11-11--11-11--11-11--11-----1-1--1-1--1-1------------------------------| 

Chorus x4 (will play behind main riff) 

e|----------------------------------------------------------------------------| 
B|----------------------------------------------------------------------------| 
G|----------------------------------------------------------------------------| 
D|--6-6-4-6--6-6-4-6--11-9----6-6-4-6---6-6-5-4--1----------------------------| 
A|--6-6-4-6--6-6-4-6--11-9----6-6-4-6---6-6-5-4--1----------------------------| 
D|--6-6-4-6--6-6-4-6--11-9----6-6-4-6---6-6-5-4--1----------------------------| 

Solo x2 

e|----------------------------------------------------------------------------| 
B|----------------------------------------------------------------------------| 
G|----------------------------------------------------------------------------| 
D|--11-11--11-11--11-11--11-----1-1--1-1--1-1---------------------------------| 
A|--11-11--11-11--11-11--11-----1-1--1-1--1-1---------------------------------|b2 
D|--11-11--11-11--11-11--11-----1-1--1-1--1-1---------------------------------| 

Chorus until song ends 

e|----------------------------------------------------------------------------| 
B|----------------------------------------------------------------------------| 
G|----------------------------------------------------------------------------| 
D|--6-6-4-6--6-6-4-6--11-9----6-6-4-6---6-6-5-4--1----------------------------| 
A|--6-6-4-6--6-6-4-6--11-9----6-6-4-6---6-6-5-4--1----------------------------| 
D|--6-6-4-6--6-6-4-6--11-9----6-6-4-6---6-6-5-4--1----------------------------| 
 
    	
fixar
fixar inscrever-se

enviado porenviado por: jessgomes
cifra enviadaCorrigida por: sem correções
logo top cifrasComente
ico música do artistaMúsicas deste artista
ico curtiuCurtiu?
ico destaqueDestaque
Petaxxon Comunicação Online

Cifras.com.br - Melhor e mais completo site de cifras e tablaturas do Brasil Mais de 1 milhão de acordes de músicas cadastradas desde 2003
As informações contidas no nosso site são colaborações de seus usuários e podem conter erros, sendo assim, não nos responsabilizamos sobre nenhuma destas.

close
menos
mais
close
Cor dos acordes:

Cor da letra:

close
Alinhar acordes a direita Alinhar acordes a esquerda Alinhar acordes em baixo Alinhar acordes no topo
close
  Mostrar todos os acordes Esconder acordes muito fáceis Esconder acordes fáceis Esconder acordes intermediários
redimensionar
glossário