Cifras e Tablaturas
Francisco Tárrega

Francisco Tárrega

Lágrima Tablatura Verificada

Compositor : (Francisco Tárrega)

Cifras Cancelar Versão de Impressão
cifras

Francisco Tárrega - Lágrima

fixar na tela  
Exibindo: vídeo-aula ver clipes redimensionar
   
Parte A:  



 e|-4---5---7---2-----------4---5---7---2------------------|  
 B|---0---0---0---0---0---0---0---0---0---0---0---0--------|  
 G|-----------------2-----------------------2--------------|  
 D|-2---4---6---1-----------2---4---6---1------------------|  
 A|---------------------2-----------------------2----------|  
 E|--------------------------------------------------------|  




 e|-12---11---9---7------0----------0---2-----0------------|  
 B|-------------7---9---------10--9---2-----4--------------|  
 G|----9----9--------------11---------3-----2-1------------|  
 D|-11---9----7---9---11----------9-----------2------------|  
 A|---------------------------------------2----------------|  
 E|---------------------------------------------0----------|repete   



 Parte B:  



 e|-3/8-7p0-----0-------------12---8-----------------0-2---|  
 B|---------7-8---1-0-------0----------10-7--------0-------|  
 G|-0-------8-----2-0-2-0-2-0-------------8----------------|  
 D|---------7---------4-2-4------7----------9h10-9---------|  
 A|----------------------------------9---------------------|  
 E|-0-------7---0-----------0-------------7----------------|  




 e|-3---5---7---10-8-7--------0---2-------0----------------|  
 B|---0---0---0--------10-8-7---0---1-0--------------------|  
 G|-----------------------------0---2---2-0----------------|  
 D|-2---4---6---------------------------1-2----------------|  
 A|-------------0---------------------2--------------------|  
 E|-----------------------------------------0--------------|repete  

  

top 5 | francisco tárrega
top romântica
Outras músicas do artista letras do(a) Francisco Tárrega
Top cifras »Top artistas »
Petaxxon Comunicação Online
Cifras.com.br - Melhor e mais completo site de cifras e tablaturas do Brasil
Mais de 1 milhão de acordes de músicas cadastradas desde 2003
As informações contidas no nosso site são colaborações de seus usuários e podem conter erros, sendo assim, não nos responsabilizamos sobre nenhuma destas.
close
menos
mais
close
Cor dos acordes:

Cor da letra:

 

save
close
close
 
redimensionar