Cifras e Tablaturas
Frank Turner

Frank Turner

Anymore

Cifras Cancelar Versão de Impressão
cifras

Frank Turner - Anymore

fixar na tela  
Exibindo: vídeo-aula ver clipes redimensionar

Tom:

C

ver outros tons
  
The Intro is the same as the first line of the verse. 

Verse: 
e|---------------------------------------------------------------------------0| 
B|-----1---------1--------3---------3------------------1-------1---0h1-----1--| 
G|---0---0-----0---0----0---0-----0---0--2---2---0h2-2---2---2---2-----2-2----| 
D|---------0h2-----------------------------3---3------------------------------| 
A|-3--------------------------0h2--------------------------0------------------| 
E|--------------------3-------------------------------------------------------|} 
   C                  G                  F                 Am                   } 
                                                                                 }x2 
e|---------1-----------------------------------------------------------------0| } 
B|-----3-------3----------3---------3------------------1-------1---0h1-----1--|) 
G|---2---2---2----------0---0-----0---0--2---2---0h2-2---2---2---2-----2-2----| 
D|-0---------------------------------------3---3------------------------------| 
A|----------------------------0h2--------------------------0------------------| 
E|--------------------3-------------------------------------------------------| 
   Dm                 G                  F                 Am 

Chorus: 
e|----------------------------------------------------------------------------| 
B|---------------------3---------3-------1-1---------------1---------1--------| 
G|-----2---0h2---2-------0---------0-----2-2-----2---2-----0-0---0-----0------| 
D|-3-3---3-----3---3-0---------0-----2-2-2-2-2-2---2---2-2---2-2---2---2------| 
A|-3-3---------------2-----0h2-------0-0-----0-0-------3-3-----3---3----------| 
E|----------------------------------------------------------------------------| 
   F                 G               Am                C 

e|----------------------------------------------------------------------------| 
B|---------------------3---------3-------------------------------1-1----------| 
G|-----2---0h2---2-------0---------0-----0-0-----0-0-----2-2-----0-0----------| 
D|-3-3---3-----3---3-0---------0-----2-2-2-2-0-0-0-0-2-2-2-2------------------| 
A|-3-3---------------2-----0h2-------3-3-----2-2-----0-0----------------------| 
E|-----------------------------------------------------------3-3--------------| 
   F                 G               C       C/B     Am       G/C 

e|----------------------------------------------------------------------------| 
B|---------------------3---------3-------1---------1--------------------------| 
G|-----2---0h2---2-------0---------0---0---0-----0---0------------------------| 
D|-3-3---3-----3---3-0---------0-------------0h2------------------------------| 
A|-3-3---------------2-----0h2-------3-----------------3----------------------| 
E|----------------------------------------------------------------------------| 
   F                 G                C 

REPEAT VERSE 
REPEAT Chorus 

Bridge: Single Strum 
e|-0----7----5----5-----------------------------------------------------------| 
B|-6----6----8----6-----------------------------------------------------------| 
G|-0----5----5----7-----------------------------------------------------------| 
D|-7----7----5----5-----------------------------------------------------------| 
A|-8----5----7----5-----------------------------------------------------------| 
E|-8----x----5----7-----------------------------------------------------------| 

ENDING: 
e|----------------------------------------------------------------------------| 
B|---------------------3---------3--------------------------------------------| 
G|-----2---0h2---2-------0---------0-----0-0-----0-0-----2-2-----0-0----------| 
D|-3-3---3-----3---3-0---------0-----2-2-2-2-0-0-0-0-2-2-2-2-0-0-0-0----------| 
A|-3-3---------------2-----0h2-------3-3-----2-2-----0-0-----2-2--------------| 
E|----------------------------------------------------------------------------| 
   F                 G               C       C/B     Am       C/B 

e|----------------------------------------------------------------------------| 
B|----------------------------------------------------------------------------| 
G|---------------------------------------0-0-----0-0-----2-2-----0-0----------| 
D|-----------------------------------2-2-2-2-0-0-0-0-2-2-2-2-0-0-0-0----------| x3 
A|-----------------------------------------------------------2-2--------------| 
E|----------------------------------------------------------------------------| 
                                     C       C/B     Am       C/B 
e|--0-------------------------------------------------------------------------| 
B|--1-------------------------------------------------------------------------| 
G|--0-------------------------------------------------------------------------| 
D|--2-------------------------------------------------------------------------| 
A|--3-------------------------------------------------------------------------| 
E|--3-------------------------------------------------------------------------| 
   C/G 



************************************ 

| /   slide up 
| \   slide down 
| h   hammer-on 
| p   pull-off 
| ~   vibrato 
| +   harmonic 
| x   Mute note 
| b   Bend 
| pb  Pre-bend 
| br  Bend release 
| pbr Pre-bend release 
| brb Bend release bend 

************************************ 
  

cifra enviadasem correções
enviado porenviada por:carlluz
top 5 | frank turner
top pop music
Outras músicas do artista letras do(a) Frank Turner
Top cifras »Top artistas »
Petaxxon Comunicação Online
Cifras.com.br - Melhor e mais completo site de cifras e tablaturas do Brasil
Mais de 1 milhão de acordes de músicas cadastradas desde 2003
As informações contidas no nosso site são colaborações de seus usuários e podem conter erros, sendo assim, não nos responsabilizamos sobre nenhuma destas.
close
menos
mais
close
Cor dos acordes:

Cor da letra:

 

save
close
close
 
redimensionar