Cifras e Tablaturas
Frank Zappa

Frank Zappa

Easy Meat (live)

Cifras Cancelar Versão de Impressão
cifras

Frank Zappa - Easy Meat (live)

fixar na tela  
Exibindo: vídeo-aula ver clipes redimensionar

Tom:

  
Intro 

e|-------------------------------------------| 
B|-------------------------------------------| 
G|-------------------------------------------| 
D|-------------------------------------------| 
A|-------------------------------------------| 
E|-0--2--0--2--0--2-5~----0--2--0--2--0--2---| 

Walrus Noises 

e|-------------------------------------------| 
B|-------------------------------------------| 
G|-------------------------------------------| 
D|-------------------------------------------| 
A|-------------------------------------------| 
E|-0--2--0--2--0--2-5~----0--2--0--2--0--2---| 

Walrus Noises 

Verse 

e|-------------------------------------------| 
B|-------------------------------------------| 
G|-------------------------------------------| 
D|-------------------------------------------| 
A|-------------------------------------------| 
E|-0--2--0--2--0--2-5~----0--2--0--2--0--2---| 

Walrus Noises 

e|----------------------------------------------| 
B|----------------------------------------------| 
G|----------------------------------------------| 
D|-------------------------------2~-------------| 
A|-------------------------2--4-----2--0--------| 
E|-0--2--0--2--0--2--0--2-----------------2-----| 

Chorus 

e|---------------------------------| 
B|---------------------------------| 
G|---------------------------------| 
D|----------------------7--7-6-4---| 
A|-9--7-9--7-----------------------| 
E|-7--5-7--5---5--5-4-2------------| 

e|---------------------------------| 
B|---------------------------------| 
G|---------------------------------| 
D|----------------------7--7-6-4---| 
A|-9--7-9--7-----------------------| 
E|-7--5-7--5---5--5-4-2------------| 

e|--------------------------------------------------------------------| 
B|--------------------------------------------------------------------| 
G|--------------------------------------------------------------------| 
D|--------------6--4-6--4--------------7--7-6-4------------7--7-6-4---| 
A|-9--7-9--7----4--2-4--2----7--7-6-4------------7--7-6-4-------------| 
E|-7--5-7--5-----------------5--5-4-2------------5--5-4-2-------------| 

e|------------------------------------| 
B|------------------------------------| 
G|------------------------------------| 
D|------------7--7-6-4----------------| 
A|-7--7-6-4-------------7--7-6-4------| 
E|-5--5-4-2-------------5--5-4-2------| 

Verse 

e|-------------------------------------------| 
B|-------------------------------------------| 
G|-------------------------------------------| 
D|-------------------------------------------| 
A|-------------------------------------------| 
E|-0--2--0--2--0--2-5~----0--2--0--2--0--2---| 

Walrus Noises 

e|----------------------------------------------| 
B|----------------------------------------------| 
G|----------------------------------------------| 
D|-------------------------------2~-------------| 
A|-------------------------2--4-----2--0--------| 
E|-0--2--0--2--0--2--0--2-----------------2-----| 

Chorus 

e|---------------------------------| 
B|---------------------------------| 
G|---------------------------------| 
D|----------------------7--7-6-4---| 
A|-9--7-9--7-----------------------| 
E|-7--5-7--5---5--5-4-2------------| 

e|---------------------------------| 
B|---------------------------------| 
G|---------------------------------| 
D|----------------------7--7-6-4---| 
A|-9--7-9--7-----------------------| 
E|-7--5-7--5---5--5-4-2------------| 

e|--------------------------------------------------------------------| 
B|--------------------------------------------------------------------| 
G|--------------------------------------------------------------------| 
D|--------------6--4-6--4--------------7--7-6-4------------7--7-6-4---| 
A|-9--7-9--7----4--2-4--2----7--7-6-4------------7--7-6-4-------------| 
E|-7--5-7--5-----------------5--5-4-2------------5--5-4-2-------------| 

e|------------------------------------| 
B|------------------------------------| 
G|------------------------------------| 
D|------------7--7-6-4----------------| 
A|-7--7-6-4-------------7--7-6-4------| 
E|-5--5-4-2-------------5--5-4-2------| 

Bridge 

e|-------------------------------------------| 
B|-------------------------------------------| 
G|-------------------------------------------| 
D|-------------------------------------------| 
A|-------------------------------------------| 
E|-0--2--0--2--0--2-5~----0--2--0--2--0--2---| 

e|--------------------------------------------------| 
B|--------------------------------------------------| 
G|--------------------------------------------------| 
D|------------------------------------------4--2----| 
A|------------------------------------------2--0----| 
E|-0--2--0--2--0--2-5~----0--2--0--2--0--2----------| 

Solo Vamp 

e|-------------------------------------------| 
B|-------------------------------------------| 
G|-------------------------------------------| 
D|-------------------------------------------| 
A|-------------------------------------------| 
E|-0--2--0--2--0--2-5~----0--2--0--2--0--2---| 

Verse Starts Again 4:00 

e|-------------------------------------------| 
B|-------------------------------------------| 
G|-------------------------------------------| 
D|-------------------------------------------| 
A|-------------------------------------------| 
E|-0--2--0--2--0--2-5~----0--2--0--2--0--2---| 

Walrus Noises 

e|-------------------------------------------| 
B|-------------------------------------------| 
G|-------------------------------------------| 
D|-------------------------------------------| 
A|-------------------------------------------| 
E|-0--2--0--2--0--2-5~----0--2--0--2--0--2---| 

e|-------------------------------------------| 
B|-------------------------------------------| 
G|-------------------------------------------| 
D|-------------------------------------------| 
A|-------------------------------------------| 
E|-0--2--0--2--0--2-5~----0--2--0--2--0--2---| 

e|----------------------------------------------| 
B|----------------------------------------------| 
G|----------------------------------------------| 
D|-------------------------------2~-------------| 
A|-------------------------2--4-----2--0--------| 
E|-0--2--0--2--0--2--0--2-----------------2-----| 

Chorus 

e|---------------------------------| 
B|---------------------------------| 
G|---------------------------------| 
D|----------------------7--7-6-4---| 
A|-9--7-9--7-----------------------| 
E|-7--5-7--5---5--5-4-2------------| 

e|---------------------------------| 
B|---------------------------------| 
G|---------------------------------| 
D|----------------------7--7-6-4---| 
A|-9--7-9--7-----------------------| 
E|-7--5-7--5---5--5-4-2------------| 

e|--------------------------------------------------------------------| 
B|--------------------------------------------------------------------| 
G|--------------------------------------------------------------------| 
D|--------------6--4-6--4--------------7--7-6-4------------7--7-6-4---| 
A|-9--7-9--7----4--2-4--2----7--7-6-4------------7--7-6-4-------------| 
E|-7--5-7--5-----------------5--5-4-2------------5--5-4-2-------------| 

e|------------------------| 
B|------------------------| 
G|------------------------| 
D|------------7--7-6-4----| 
A|-7--7-6-4---------------| 
E|-5--5-4-2---------------| 



| /  slide up 
| \  slide down 
| h  hammer-on 
| p  pull-off 
| ~  vibrato 
| +  harmonic 
| x  Mute note 
  

top 5 | frank zappa
top rock'n roll
Outras músicas do artista letras do(a) Frank Zappa
Top cifras »Top artistas »
Petaxxon Comunicação Online
Cifras.com.br - Melhor e mais completo site de cifras e tablaturas do Brasil
Mais de 1 milhão de acordes de músicas cadastradas desde 2003
As informações contidas no nosso site são colaborações de seus usuários e podem conter erros, sendo assim, não nos responsabilizamos sobre nenhuma destas.
close
menos
mais
close
Cor dos acordes:

Cor da letra:

 

save
close
close
 
redimensionar