Cifras e Tablaturas
Frankie

Frankie

Chaos

Cifras Cancelar Versão de Impressão
cifras

Frankie - Chaos

fixar na tela  
Exibindo: vídeo-aula ver clipes redimensionar

Tom:

   
Capo 2 



E|--------------------------------------------------| 
B|-----1-----1-----1-----1-----1-----1-----1-----1--| 
G|-----0-----0-----0-----0-----0-----0-----0-----0--| 
D|--------------------------------------------------| 
A|--3-----3-----2-----2-----0-----0-----0-----0-----| 
E|--------------------------------------------------| 

                       (0:08)  *she does a hammer-on only the first time (optional)  
E|--------------------------------------------------| 
B|-----1-----1-----1-----*1-----1-----1-----1-----1-| 
G|-----0-----0-----0------0-----0-----0-----0-----0-| 
D|--------------------------------------------------| 
A|---------------------------3-----3-----3-----3----| 
E|--1-----1-----3-----3-----------------------------| x3 

  (0:33) 
E|--------------------------------------------------| 
B|-----1-----1-----1-----1------1-----1-----1----1--| 
G|-----0-----0-----0-----0------0-----0-----0----0--| 
D|--------------------------------------------------| 
A|---------------------------3-----2-----0-----0----| 
E|--1-----1-----3-----3-----------------------------| 


E|--------------------------------------------------| 
B|-----1-----1-----1-----1------1-----1-----1----1--| 
G|-----0-----0-----0-----0------0-----0-----0----0--| 
D|--------------------------------------------------| 
A|---------------------------0-----0-----0-----0----| 
E|--1-----1-----3-----3-----------------------------| 

                 ~Let it ring                  Mute 
E|--------------------------------------------------| 
B|-----1-----1-----------------1-----1-----1x-------| 
G|-----0-----0-----------------0-----0-----0x-------| 
D|--------------------------------------------------| 
A|--------------------------3-----3-----3-----------| 
E|--1-----1----~3-----------------------------------| 

  (0:50) 
E|--------------------------------------------------| 
B|-----1-----1-----1-----1-----1-----1-----1-----1--| 
G|-----0-----0-----0-----0-----0-----0-----0-----0--| 
D|--------------------------------------------------| 
A|--3-----3-----2-----2-----0-----0-----0-----0-----| 
E|--------------------------------------------------| 

                       
E|--------------------------------------------------| 
B|-----1-----1-----1------1-----1-----1-----1-----1-| 
G|-----0-----0-----0------0-----0-----0-----0-----0-| 
D|--------------------------------------------------|x2 
A|---------------------------3-----3-----3-----3----| 
E|--1-----1-----3-----3-----------------------------|  


E|--------------------------------------------------| 
B|-----1-----1-----1-----1------1-----1-----1----1--| 
G|-----0-----0-----0-----0------0-----0-----0----0--| 
D|--------------------------------------------------| 
A|---------------------------3-----2-----0-----0----| 
E|--1-----1-----3-----3-----------------------------| 


E|--------------------------------------------------| 
B|-----1-----1-----1-----1------1-----1-----1----1--| 
G|-----0-----0-----0-----0------0-----0-----0----0--| 
D|--------------------------------------------------| 
A|---------------------------0-----0-----0-----0----| 
E|--1-----1-----3-----3-----------------------------|x2 separately 


E|--------------------------------------------------| 
B|-----1-----1-----1-----1------1-----1-----1----1--| 
G|-----0-----0-----0-----0------0-----0-----0----0--| 
D|--------------------------------------------------| 
A|---------------------------3-----2-----0-----0----| 
E|--1-----1-----3-----3-----------------------------| 

                 ~Let it ring 
E|--------------------------------------------------| 
B|-----1-----1-----------------1-----1-----1-----1--| 
G|-----0-----0-----------------0-----0-----0-----0--| 
D|--------------------------------------------------| 
A|--------------------------3-----3-----3-----3-----| 
E|--1-----1----~3-----------------------------------| 

  (1:39)~Let it Ring  
E|-~3-----------------------------------------------| 
B|-~0-----~0-------------1-----1-----1-----1--------| 
G|-~0-----~0-------------0-----0-----0-----0--------| 
D|--------~0----------------------------------------| 
A|--------------------3-----3-----3-----3-----------| 
E|-~3-----~3----------------------------------------| 


E|-----------------------------------| 
B|-~1--1--~0--1-------1-----1-----1--| 
G|-~0--0--~0--0-------0-----0-----0--| 
D|-~2-----~0-------------------------| 
A|-~3--------------3-----2-----0-----| 
E|--------~3-------------------------| 


E|--------------------------------------------------| 
B|-----1-----1-----1-----1------1-----1-----1----1--| 
G|-----0-----0-----0-----0------0-----0-----0----0--| 
D|--------------------------------------------------| 
A|---------------------------3-----2-----0-----0----| 
E|--1-----1-----3-----3-----------------------------| 

   ~Let it Ring 
E|---------------------------------------------| 
B|--1--1--1--1--1---------1-----1-----1-----1--| 
G|--0--0--0--0--0---------0-----0-----0-----0--| 
D|---------------------------------------------| 
A|-----3----------------3-----3-----3-----3----| 
E|-----------3---------------------------------| 

  (2:03) 
E|--------------------------------------------------| 
B|-----1-----1-----1-----1------1-----1-----1----1--| 
G|-----0-----0-----0-----0------0-----0-----0----0--| 
D|--------------------------------------------------| 
A|---------------------------3-----2-----0-----0----| 
E|--1-----1-----3-----3-----------------------------| 

E|--------------------------------------------------| 
B|-----1-----1-----1-----1------1-----1-----1----1--| 
G|-----0-----0-----0-----0------0-----0-----0----0--|x2 
D|--------------------------------------------------| 
A|---------------------------0-----0-----0-----0----| 
E|--1-----1-----3-----3-----------------------------| 


E|--------------------------------------------------| 
B|-----1-----1-----1-----1------1-----1-----1----1--| 
G|-----0-----0-----0-----0------0-----0-----0----0--| 
D|--------------------------------------------------|x2 
A|---------------------------0-----0-----0-----0----| 
E|--1-----1-----3-----3-----------------------------|  

  (2:35)  Softly  
E|------------------------------------| 
B|-~1--~0--------1-----1-----1-----1--| 
G|-~0--~0--------0-----0-----0-----0--| 
D|-~2--~0-----------------------------| 
A|-~3---------3-----3-----3-----3-----| 
E|-----~3-----------------------------| 

                
E|------------------------| 
B|-~1--~0-----~1----------| 
G|-~0--~0-----~0----------| 
D|-~2--~0-----~2----------| 
A|-~3---------~3----------| 
E|-----~3-----------------| 


*********************************** 
| ~   Vibrato 
*********************************** 
  

top 5 | frankie
top rock'n roll
Outras músicas do artista letras do(a) Frankie
Top cifras »Top artistas »
Petaxxon Comunicação Online
Cifras.com.br - Melhor e mais completo site de cifras e tablaturas do Brasil
Mais de 1 milhão de acordes de músicas cadastradas desde 2003
As informações contidas no nosso site são colaborações de seus usuários e podem conter erros, sendo assim, não nos responsabilizamos sobre nenhuma destas.
close
menos
mais
close
Cor dos acordes:

Cor da letra:

 

save
close
close
 
redimensionar