Cifras e Tablaturas
Franz Ferdinand

Franz Ferdinand

Paper Cages

Cifras Cancelar Versão de Impressão
cifras

Franz Ferdinand - Paper Cages

fixar na tela  
Exibindo: vídeo-aula ver clipes redimensionar
  
Intro 
e|---------------------------------------------------------------------------| 
B|---------------------------------------------------------------------------| 
G|---------------------------------------------------------------------------| 
D|---------------------------------------------------------------------------| 
A|--5-5-5-5-5-5-5-5/7-7-7-7-7-7-7-7/8-8-8-8-8-8-8-8/10-10-10-10-10-10-10-10--| 
E|--3-3-3-3-3-3-3-3/5-5-5-5-5-5-5-5/6-6-6-6-6-6-6-6/8--8--8--8--8--8--8--8---| 

e|---------------------------------------------------------------------------| 
B|---------------------------------------------------------------------------| 
G|---------------------------------------------------------------------------| 
D|---------------------------------------------------------------------------| 
A|--5-5-5-5-5-5-5-5/7-7-7-7-7-7-7-7/8-8-8-8-8-8-8-8/10-10-10-10/11-11-11-11--| 
E|--3-3-3-3-3-3-3-3/5-5-5-5-5-5-5-5/6-6-6-6-6-6-6-6/8--8--8--8-/9--9--9--9---| 

e|-----------------------------| 
B|-----------------------------| 
G|-----------------------------| 
D|-----------------------------| 
A|-12-12-12-12-12-12-12-12-12--| 
E|-10-10-10-10-10-10-10-10-10--| 


Instrumental 1 
e|-----------------------------------------------------------------------------------------------------------| 
B|---x-6~-------------6~---------x--------------------6~---6-x----------------------------6-6---6~-----------| 
G|---x----7-7-5-7-x-x----7-7-5-7-x-------5--7~-5-x-7-----7-----5-x-7--------5--7--5-x-7-------7---5-x-7------| 
D|---------------------------------5h6h7------------------------------5h6h7----------------------------------| 
A|-----------------------------------------------------------------------------------------------------------| 
E|-----------------------------------------------------------------------------------------------------------| 

Main riff 
e|----------------------------------| 
B|------6--5------------------------| 
G|------------7--5--3-2-------------| 
D|----------------------3~-5~-------| 
A|----------------------------(5)---| 
E|----------------------------------| 

Verse 
No guitar during the first verse, but it could be played palm-muting the following bass notes or  
power chords:         
  Gm                 Bb              F 
e|------------------------------------------------------------------------| 
B|------------------------------------------------------------------------| 
G|------------------------------------------------------------------------| 
D|------------------------------------------------------------------------| x2 
A|-5-5-5-5-5-5-5-5--8-8-8-8-8-8-8-8--3-3-3-3-3-3-3-3-3-3-3-3-3-3-3-3------| 
E|-3-3-3-3-3-3-3-3--6-6-6-6-6-6-6-6--1-1-1-1-1-1-1-1-1-1-1-1-1-1-1-1------| 

Chorus 
    Dm                                  Gm 
e|--5---5---x--5-5-x--5---5---x--5-5-x--3---3---x--3-3-x--3---3---x--3-3-x--| 
B|--6---6---x--6-6-x--6---6---x--6-6-x--3---3---x--3-3-x--3---3---x--3-3-x--| 
G|--7---7---x--7-7-x--7---7---x--7-7-x--3---3---x--3-3-x--3---3---x--3-3-x--| 
D|--7---7---x--7-7-x--7---7---x--7-7-x--5---5---x--5-5-x--5---5---x--5-5-x--| 
A|--5---5---x--5-5-x--5---5---x--5-5-x--5---5---x--5-5-x--5---5---x--5-5-x--| 
E|--------------------------------------------------------------------------| 

    Bb                                   Main Riff 
e|--6---6---x--6-6-x--6---6---x--6-6-x------------------------------| 
B|--6---6---x--6-6-x--6---6---x--6-6-x----6--5----------------------| 
G|--7---7---x--7-7-x--7---7---x--7-7-x----------7--5--3-2-----------| 
D|--8---8---x--8-8-x--8---8---x--8-8-x--------------------3~-5~-----| 
A|--8---8---x--8-8-x--8---8---x--8-8-x--------------------------(5)-| 
E|------------------------------------------------------------------| 

Instrumental 2 
e|---------------------------------------| 
B|------10--------------------10---------| 
G|-/12------10~-----10--12-12----10~-----| 
D|--------------12-------------------12~-| x3 
A|---------------------------------------| 
E|---------------------------------------| 

Main riff 
e|----------------------------------| 
B|------6--5------------------------| 
G|------------7--5--3-2-------------| 
D|----------------------3~-5~-------| 
A|----------------------------(5)---| 
E|----------------------------------| 

verse 2 
    Bb                      Gm                       F 
e|-6---x-6-----6---x-6-----3---x-3-----3---x-3------1---x-1-----1---x-1------1---x-1-----1---x-1--| 
B|-6---x-6-----6---x-6-----3---x-3-----3---x-3------1---x-1-----1---x-1------1---x-1-----1---x-1--| 
G|-7---x-7-----7---x-7-----3---x-3-----3---x-3------2---x-2-----2---x-2------2---x-2-----2---x-2--| 
D|-8---x-8-----8---x-8-----5---x-5-----5---x-5------3---x-3-----3---x-3------3---x-3-----3---x-3--|  
A|-8---x-8-----8---x-8-----5---x-5-----5---x-5------3---x-3-----3---x-3------3---x-3-----3---x-3--| 
E|------------------------------------------------------------------------------------------------| 

Chorus 
   
    Dm                                  Gm 
e|--5---5---x--5-5-x--5---5---x--5-5-x--3---3---x--3-3-x--3---3---x--3-3-x--| 
B|--6---6---x--6-6-x--6---6---x--6-6-x--3---3---x--3-3-x--3---3---x--3-3-x--| 
G|--7---7---x--7-7-x--7---7---x--7-7-x--3---3---x--3-3-x--3---3---x--3-3-x--| 
D|--7---7---x--7-7-x--7---7---x--7-7-x--5---5---x--5-5-x--5---5---x--5-5-x--| 
A|--5---5---x--5-5-x--5---5---x--5-5-x--5---5---x--5-5-x--5---5---x--5-5-x--| 
E|--------------------------------------------------------------------------| 

    Bb                                   Main Riff 
e|--6---6---x--6-6-x--6---6---x--6-6-x------------------------------| 
B|--6---6---x--6-6-x--6---6---x--6-6-x----6--5----------------------| 
G|--7---7---x--7-7-x--7---7---x--7-7-x----------7--5--3-2-----------| 
D|--8---8---x--8-8-x--8---8---x--8-8-x--------------------3~-5~-----| 
A|--8---8---x--8-8-x--8---8---x--8-8-x--------------------------(5)-| 
E|------------------------------------------------------------------| 

Instrumental 3 
e|-----------------------------------------------------------------------| 
B|-----------------------------------------------------------------------| 
G|-----------------------------------------------------------------------| 
D|--------3---------3-x-5~-------3-------3b4-----------3--------3-x-3~~--|  
A|--3h4h5---x-3h4h5--------3h4h5---3h4h5-----5---3h4h5----3h4h5---x------| 
E|-----------------------------------------------------------------------| 

Main riff 
e|----------------------------------| 
B|------6--5------------------------| 
G|------------7--5--3-2-------------| 
D|----------------------3~-5~-------| 
A|----------------------------(5)---| 
E|----------------------------------| 

Pre-Chorus 
Guitar 1: 
   C                 
e|----------------------------------| 
B|----------------------------------| 
G|----------------------------------| 
D|-5-5-5-5-5-5-5-5-5-5-5-5-5-5-5-5--| x3 
A|-3-3-3-3-3-3-3-3-3-3-3-3-3-3-3-3--| 
E|----------------------------------| 

Guitar 2 : 
Main riff 
e|----------------------------------| 
B|------6--5------------------------| 
G|------------7--5--3-2-------------| 
D|----------------------3~-5~-------| x3 
A|----------------------------(5)---| 
E|----------------------------------| 

Chorus 
    Dm                                    Bb 
e|--5---5---x--5-5-x--5---5---x--5-5-x----6---6---x--6-6-x--6---6---x--6-6-x-| 
B|--6---6---x--6-6-x--6---6---x--6-6-x----6---6---x--6-6-x--6---6---x--6-6-x-| 
G|--7---7---x--7-7-x--7---7---x--7-7-x----7---7---x--7-7-x--7---7---x--7-7-x-| 
D|--7---7---x--7-7-x--7---7---x--7-7-x----8---8---x--8-8-x--8---8---x--8-8-x-| 
A|--5---5---x--5-5-x--5---5---x--5-5-x----8---8---x--8-8-x--8---8---x--8-8-x-| 
E|---------------------------------------------------------------------------| 

    Gm                                    A 
e|--3---3---x--3-3-x--3---3---x--3-3-x----5-5-5-5-5-5-5-5-5-5-5-5-5-5-5-5----| 
B|--3---3---x--3-3-x--3---3---x--3-3-x----5-5-5-5-5-5-5-5-5-5-5-5-5-5-5-5----| 
G|--3---3---x--3-3-x--3---3---x--3-3-x----6-6-6-6-6-6-6-6-6-6-6-6-6-6-6-6----| 
D|--5---5---x--5-5-x--5---5---x--5-5-x----7-7-7-7-7-7-7-7-7-7-7-7-7-7-7-7----| 
A|--5---5---x--5-5-x--5---5---x--5-5-x----7-7-7-7-7-7-7-7-7-7-7-7-7-7-7-7----| 
E|---------------------------------------------------------------------------| 

    Dm                                     
e|--5---| 
B|--6---| 
G|--7---| 
D|--7---| let ring 
A|--5---| 
E|------| 



************************************ 

| /    Slide up 
| x    Dead note 
| ~    Vibrato 
| h    Hammer-on 
| (n)  Ghost note 
| b    Bend 

************************************ 
  

cifra enviadasem correções
enviado porenviada por:jov-correa
top 5 | franz ferdinand
top rock'n roll
Outras músicas do artista letras do(a) Franz Ferdinand
Top cifras »Top artistas »
Petaxxon Comunicação Online
Cifras.com.br - Melhor e mais completo site de cifras e tablaturas do Brasil
Mais de 1 milhão de acordes de músicas cadastradas desde 2003
As informações contidas no nosso site são colaborações de seus usuários e podem conter erros, sendo assim, não nos responsabilizamos sobre nenhuma destas.
close
menos
mais
close
Cor dos acordes:

Cor da letra:

 

save
close
close
 
redimensionar