Cifras e Tablaturas
Freaky Age

Freaky Age

Like A Machine

Cifras Cancelar Versão de Impressão
cifras

Freaky Age - Like A Machine

fixar na tela  
Exibindo: vídeo-aula ver clipes redimensionar

Tom:

  
Intro 
E|--------------------------------------------| 
B|--------------------------------------------| 
G|--------------------------------------------| (8x) 
D|--------------------------------------------| 
A|-0-0-10-0-10-0-0-10-0-0-10-0-10-10h12-12-12-| 
E|--------------------------------------------| 

Verse 
E|---------------------------------------------| 
B|---------------------------------------------| 
G|---------------------------------------------| 
D|-14(16x)-12(16x)-10(16x)-9(8x)-10(4x)-12(4x)-| 
A|---------------------------------------------| 
E|---------------------------------------------| 

E|----------------------------------------------------------------| 
B|--------------------------13------------------------------------| 
G|-------14-12----------------14-12-------------------------------| 
D|-14(12x)----14(4x)--12(12x)---------10(16x)-9(8x)-10(4x)-12(4x)-| 
A|----------------------------------------------------------------| 
E|----------------------------------------------------------------| 

Chorus 
E|---------------------------| 
B|---------------------13-13-| 
G|------12-------14-14-------| (2x) 
D|--/14---14-----------------| 
A|---------------------------| 
E|---------------------------| 

Instrumental 
E|--------------------------------------------| 
B|--------------------------------------------| 
G|--------------------------------------------| (2x) 
D|--------------------------------------------| 
A|-0-0-10-0-10-0-0-10-0-0-10-0-10-10h12-12-12-| 
E|--------------------------------------------| 

Verse 
E|---------------------------------------------| 
B|---------------------------------------------| 
G|---------------------------------------------| 
D|-14(16x)-12(16x)-10(16x)-9(8x)-10(4x)-12(4x)-| 
A|---------------------------------------------| 
E|---------------------------------------------| 

Chorus 
E|---------------------------| 
B|---------------------13-13-| 
G|------12-------14-14-------| (4x) 
D|--/14---14-----------------| 
A|---------------------------| 
E|---------------------------| 

Solo 
E|-------------------------------|-------------(2x)--------------| 
B|-8b10-8-----8------------------|-------------------------------| 
G|--------9-----9\7-7-5-7b9r7-5--|---------5-----5-7-7-5-7b9r7-5-| 
D|-------------------------------|-7-7-5-7-----7-----------------| 
A|-------------------------------|-------------------------------| 
E|-------------------------------|-------------------------------| 

E|-----------------------------------------------| 
B|-8b10-8----------------------------------------| 
G|--------9-9-9\7-5-5-5-5----7-5-7-5-7b9r7-5-----| 
D|-------------------------------------------7-7-| 
A|-----------------------------------------------| 
E|-----------------------------------------------| 

E|-------------------------------------------------| 
B|-8b10-8------------------------------------------| 
G|--------9-9-7h9-9-9----7-5-7-5-7b9r7-5---5-------| 
D|---------------------------------------7---7-5-7-| 
A|-------------------------------------------------| 
E|-------------------------------------------------| 

Instrumental 
E|--------------------------------------------| 
B|--------------------------------------------| 
G|--------------------------------------------| (6x) 
D|--------------------------------------------| 
A|-0-0-10-0-10-0-0-10-0-0-10-0-10-10/12-12-12-| 
E|--------------------------------------------| 

Chorus 
E|---------------------------| 
B|---------------------13-13-| 
G|------12-------14-14-------| (4x) 
D|--/14---14-----------------| 
A|---------------------------| 
E|---------------------------| 


************************************ 

| h  Hammer-on 
| /  Slide up 
| b  Bend 
| r  Release 
| \  Slide down 

************************************ 
  

top 5 | freaky age
top rock alternativo
Outras músicas do artista letras do(a) Freaky Age
Top cifras »Top artistas »
Petaxxon Comunicação Online
Cifras.com.br - Melhor e mais completo site de cifras e tablaturas do Brasil
Mais de 1 milhão de acordes de músicas cadastradas desde 2003
As informações contidas no nosso site são colaborações de seus usuários e podem conter erros, sendo assim, não nos responsabilizamos sobre nenhuma destas.
close
menos
mais
close
Cor dos acordes:

Cor da letra:

 

save
close
close
 
redimensionar