Cifras e Tablaturas
Fresno

Fresno

Farol Intro (simplificada)

Cifras Cancelar Versão de Impressão
cifras

Fresno - Farol Intro (simplificada)

fixar na tela  
Exibindo: vídeo-aula ver clipes redimensionar

Tom:

  
E|-----------------------------------------------------| 
B|----1-----1--3--5--6--5----1---0---------------------| 
G|--2-----2----------------2---------------------------| 
D|-----------------------------------------------------| 
A|-----------------------------------------------------| 
E|-----------------------------------------------------| 


E|----------------------------------3---1-------------| 
B|----1-----1--3--5--6--5--1--------------------------| 
G|--2-----2-------------------------------------------| 
D|----------------------------------------------------| 
A|----------------------------------------------------| 
E|----------------------------------------------------| 


E|-----------------------------------------------------| 
B|----1-----1--3--5--6--5--1------1--------------------| 
G|--2-----2--------------------2-------1---------------| 
D|-----------------------------------------------------| 
A|-----------------------------------------------------| 
E|-----------------------------------------------------| 


E|-----------------------------------------------------| 
B|----1-----1--3--5--6--5--1---------------------------| 
G|--2-----2--------------------2-----------------------| 
D|-----------------------------------------------------| 
D|-----------------------------------------------------| 
A|-----------------------------------------------------| 
E|-----------------------------------------------------| 
  

top 5 | fresno
top
Outras músicas do artista letras do(a) Fresno
Top cifras »Top artistas »
Petaxxon Comunicação Online
Cifras.com.br - Melhor e mais completo site de cifras e tablaturas do Brasil
Mais de 1 milhão de acordes de músicas cadastradas desde 2003
As informações contidas no nosso site são colaborações de seus usuários e podem conter erros, sendo assim, não nos responsabilizamos sobre nenhuma destas.
close
menos
mais
close
Cor dos acordes:

Cor da letra:

 

save
close
close
 
redimensionar