Cifras e Tablaturas
From Ashes To New
Cifras Cancelar Versão de Impressão

From Ashes To New - Crazy

Tom:

  			
INTRO: 

Clean guitar 
D|---------------------------------------------------------| 
A|---------------------------------------------------------| 
F|---------------------------------------------------------| (x2) 
C|2-2--2-2--0-0--0-0--0-0-0-0--5-5--5-5--4-4--4-4--4-4-4-4-| 
G|2-2--2-2--0-0--0-0--0-0-0-0--5-5--5-5--4-4--4-4--4-4-4-4-| 
C|2-2--2-2--0-0--0-0--0-0-0-0--5-5--5-5--4-4--4-4--4-4-4-4-| 

Distortion guitar 
D|---------------------------------------------------------| 
A|---------------------------------------------------------| 
F|---------------------------------------------------------|  
C|-------------------------------------------------2-2-2-2-| 
G|---------------------------------------------------------| 
C|---------------------------------------------------------| 

Both guitars 
D|---------------------------------------------------------| 
A|---------------------------------------------------------| 
F|---------------------------------------------------------| (x2) 
C|2-2--2-2--0-0--0-0--0-0-0-0--5-5--5-5--4-4--4-4--4-4-4-4-| 
G|2-2--2-2--0-0--0-0--0-0-0-0--5-5--5-5--4-4--4-4--4-4-4-4-| 
C|2-2--2-2--0-0--0-0--0-0-0-0--5-5--5-5--4-4--4-4--4-4-4-4-| 


verse 1 

Distortion guitar 
D|----------------------------------------------------------------| 
A|----------------------------------------------------------------| 
F|----------------------------------------------------------------| (x2) 
C|2-2-2-----------0-0-0-----------5-5-5-----------4-4-4-----------| 
G|2-2-2-----------0-0-0-----------5-5-5-----------4-4-4-----------| 
C|2-2-2---x-x---x-0-0-0---x-x---x-5-5-5---x-x---x-4-4-4---x-x---x-|  

D|----------------------------------------------------------------| 
A|----------------------------------------------------------------| 
F|--------4-4-4-4---------2-2-2-2---------7-7-7-7---------6-6-6-6-| (x2) 
C|2-2-2-----------0-0-0-----------5-5-5-----------4-4-4-----------| 
G|2-2-2-----------0-0-0-----------5-5-5-----------4-4-4-----------| 
C|2-2-2-----------0-0-0-----------5-5-5-----------4-4-4-----------| 
  PM---           PM---           PM---           PM--- 

D|----------|----------| 
A|----------|----------| 
F|----------|----------| 
C|7---------|9---------| 
G|5---------|7---------| 
C|5---------|7---------| 


Chorus 

Both guitars 
D|---------------------------------------------------------| 
A|---------------------------------------------------------| 
F|---------------------------------------------------------| (x4) 
C|2-2--2-2--0-0--0-0--0-0-0-0--5-5--5-5--4-4--4-4--4-4-4-4-| 
G|2-2--2-2--0-0--0-0--0-0-0-0--5-5--5-5--4-4--4-4--4-4-4-4-| 
C|2-2--2-2--0-0--0-0--0-0-0-0--5-5--5-5--4-4--4-4--4-4-4-4-| 


verse 2 

Distortion guitar 
D|----------------------------------------------------------------| 
A|----------------------------------------------------------------| 
F|----------------------------------------------------------------| (x2) 
C|2-2-2-----------0-0-0-----------5-5-5-----------4-4-4-----------| 
G|2-2-2-----------0-0-0-----------5-5-5-----------4-4-4-----------| 
C|2-2-2---x-x---x-0-0-0---x-x---x-5-5-5---x-x---x-4-4-4---x-x---x-|  

D|----------------------------------------------------------------| 
A|----------------------------------------------------------------| 
F|--------4-4-4-4---------2-2-2-2---------7-7-7-7---------6-6-6-6-| (x2) 
C|2-2-2-----------0-0-0-----------5-5-5-----------4-4-4-----------| 
G|2-2-2-----------0-0-0-----------5-5-5-----------4-4-4-----------| 
C|2-2-2-----------0-0-0-----------5-5-5-----------4-4-4-----------| 
  PM---           PM---           PM---           PM--- 


Chorus 

Both guitars 
D|---------------------------------------------------------| 
A|---------------------------------------------------------| 
F|---------------------------------------------------------| (x4) 
C|2-2--2-2--0-0--0-0--0-0-0-0--5-5--5-5--4-4--4-4--4-4-4-4-| 
G|2-2--2-2--0-0--0-0--0-0-0-0--5-5--5-5--4-4--4-4--4-4-4-4-| 
C|2-2--2-2--0-0--0-0--0-0-0-0--5-5--5-5--4-4--4-4--4-4-4-4-| 


BRIDGE 

Clean guitar 
D|--------------------------------|--------------------------------| 
A|5-5-5-5-5-5-5-5-5-5-5-5-5-5-5-5-|7-7-7-7-7-7-7-7-7-7-7-7-7-7-7-7-| 
F|--------------------------------|--------------------------------| 
C|--------------------------------|--------------------------------| 
G|--------------------------------|--------------------------------| 
C|--------------------------------|--------------------------------| 

D|--------------------------------|--------------------------------------------| 
A|8-8-8-8-8-8-8-8-8-8-8-8-8-8-8-8-|10-10-10-10-10-10-10-10-10-10-10-10-8-8-7-7-| 
F|--------------------------------|--------------------------------------------| 
C|--------------------------------|--------------------------------------------| 
G|--------------------------------|--------------------------------------------| 
C|--------------------------------|--------------------------------------------| 
  
D|--------------------------------|--------------------------------| 
A|5-5-5-5-5-5-5-5-5-5-5-5-5-5-5-5-|7-7-7-7-7-7-7-7-8-8-8-8-8-8-8-8-| 
F|--------------------------------|--------------------------------| 
C|--------------------------------|--------------------------------| 
G|--------------------------------|--------------------------------| 
C|--------------------------------|--------------------------------| 

D|------------------------------------------------|---------------------------------------------| 
A|10-10-10-10-12-12-12-12-15-15-15-15-17-17-17-17-|17-17-17-17-17-17-17-17-17-17-17-17-19-------| 
F|------------------------------------------------|---------------------------------------------| 
C|------------------------------------------------|---------------------------------------------| 
G|------------------------------------------------|---------------------------------------------| 
C|------------------------------------------------|---------------------------------------------| 


Chorus 

Clean guitar 
D|---------------------------------------------------------| 
A|---------------------------------------------------------| 
F|---------------------------------------------------------| (x2) 
C|2-2--2-2--0-0--0-0--0-0-0-0--5-5--5-5--4-4--4-4--4-4-4-4-| 
G|2-2--2-2--0-0--0-0--0-0-0-0--5-5--5-5--4-4--4-4--4-4-4-4-| 
C|2-2--2-2--0-0--0-0--0-0-0-0--5-5--5-5--4-4--4-4--4-4-4-4-| 

Distortion guitar 
D|---------------------------------------------------------| 
A|---------------------------------------------------------| 
F|---------------------------------------------------------|  
C|-------------------------------------------------2-2-2-2-| 
G|---------------------------------------------------------| 
C|---------------------------------------------------------| 

Both guitars 
D|--------------------------------------------------| 
A|--------------------------------------------------| 
F|--------------------------------------------------| 
C|2-2-2------0-0-0------5-5--5-5--4-4--4-4--4-4-4-4-| 
G|2-2-2------0-0-0------5-5--5-5--4-4--4-4--4-4-4-4-| 
C|2-2-2------0-0-0------5-5--5-5--4-4--4-4--4-4-4-4-| 

D|---------------------------------------------------------| 
A|---------------------------------------------------------| 
F|---------------------------------------------------------| (x5) 
C|2-2--2-2--0-0--0-0--0-0-0-0--5-5--5-5--4-4--4-4--4-4-4-4-| 
G|2-2--2-2--0-0--0-0--0-0-0-0--5-5--5-5--4-4--4-4--4-4-4-4-| 
C|2-2--2-2--0-0--0-0--0-0-0-0--5-5--5-5--4-4--4-4--4-4-4-4-| 


OUTRO 

Clean guitar 
D|---------------------------------------------------------| 
A|---------------------------------------------------------| 
F|---------------------------------------------------------| (x2) 
C|2-2--2-2--0-0--0-0--0-0-0-0--5-5--5-5--4-4--4-4--4-4-4-4-| 
G|2-2--2-2--0-0--0-0--0-0-0-0--5-5--5-5--4-4--4-4--4-4-4-4-| 
C|2-2--2-2--0-0--0-0--0-0-0-0--5-5--5-5--4-4--4-4--4-4-4-4-| 

D|---------------------------------------------------------| 
A|---------------------------------------------------------| 
F|---------------------------------------------------------| 
C|2-2--2-2--0-0--0-0--0-0-0-0--5-5--5-5--4-4---------------| 
G|2-2--2-2--0-0--0-0--0-0-0-0--5-5--5-5--4-4---------------| 
C|2-2--2-2--0-0--0-0--0-0-0-0--5-5--5-5--4-4---------------| 



************************************ 

x - Dead note 
PM - Palm mute 

************************************ 
    	
fixar
fixar inscrever-se

enviado porenviado por: marcnagel
cifra enviadaCorrigida por: sem correções
logo top cifrasComente
ico música do artistaMúsicas deste artista
ico curtiuCurtiu?
ico destaqueDestaque
Petaxxon Comunicação Online

Cifras.com.br - Melhor e mais completo site de cifras e tablaturas do Brasil Mais de 1 milhão de acordes de músicas cadastradas desde 2003
As informações contidas no nosso site são colaborações de seus usuários e podem conter erros, sendo assim, não nos responsabilizamos sobre nenhuma destas.

close
menos
mais
close
Cor dos acordes:

Cor da letra:

close
Alinhar acordes a direita Alinhar acordes a esquerda Alinhar acordes em baixo Alinhar acordes no topo
close
  Mostrar todos os acordes Esconder acordes muito fáceis Esconder acordes fáceis Esconder acordes intermediários
redimensionar
glossário